Song name
# A B C D E F G H I J K L M N O P Q R S T U V W X Y Z

Limp Bizkit - Just Drop Dead tab

Limp Bizkit
Just Drop Dead

I don't know why i'm tabbing this song. Probably out of embarassment for the
numbers of truly talented musicians who aren't given half the time/money/adulation
(delete as appropriate) that these meatheads are getting. It's hard to believe
that they took a year to write this steaming heap of crap and i urge anyone who
remotely enjoys this song to devote some of their time to the talented musicans
in the world.

Usual seven string tuning - ACGCFAD or it might be in Drop D or Drop C, just move
the pattern of playing around i.e. Drop D will be 9 9 9 -> 11 11 11. Doesn't
really matter the chords are underneath.

Main Riff
D|-------------------------------------|
A|-------------------------------------|
F|-------------------------------------|
C|-------------------------------------|
G|--3-3--1-3-3--1-3-3--1-3-3--4-4-4-4--|
C|--3-3--1-3-3--1-3-3--1-3-3--4-4-4-4--|
A|--3-3--1-3-3--1-3-3--1-3-3--4-4-4-4--|
    C#   B C#   B C#   B C#   D D D D

Chorus (probably)
D|-------------------------------------|
A|-------------------------------------|
F|-------------------------------------|
C|--4-4-4-4-4-4------2-2-2-2-2-2-------|
G|--4-4-4-4-4-4------2-2-2-2-2-2-------|
C|--2-2-2-2-2-2--etc-0-0-0-0-0-0--etc--|
A|-------------------------------------|
    C#               B

Break
D|-----------------------------------|
A|-----------------------------------|
F|-----------------------------------|
C|-----------------------------------|
G|--1-0--1-0--1-0--1-1-1-1-1-1-1-1---|
C|--1-0--1-0--1-0--1-1-1-1-1-1-1-1---|
A|--1-0--1-0--1-0--1-1-1-1-1-1-1-1---|
    B A  B A  B A  A 

Break (Just after)
D|--------------------------------------------|
A|--------------------------------------------|
F|--------------------------------------------|
C|--------------------------------------------|
G|--1-1-0--1-1-0--1-1-0--1--1-1-1-1-1-1-1-1---|
C|--1-1-0--1-1-0--1-1-0--1--1-1-1-1-1-1-1-1---|
A|--1-1-0--1-1-0--1-1-0--1--1-1-1-1-1-1-1-1---|
Tap to rate this tab
 
# A B C D E F G H I J K L M N O P Q R S T U V W X Y Z