Song name
# A B C D E F G H I J K L M N O P Q R S T U V W X Y Z

Limp Bizkit - Counterfeit tab

Artist: Limp Bizkit
Song: Counterfeit

tabbed by Simon Quesnay in Drop D Tuning [DADGBE]

( ) Harmonic
. Palm Muted
~ let ring
b bend


INTRO - CLEAN
E|--------------------------------------------------------------------|
b|--------------------------------------------------------------------|
G|--------------------------------------------------------------------|
D|-------6-------6-3-3--------6---------------------------------------|  x6
A|-4-5-4---5-4-4--------5-4-5---5-4-----------------------------------|
D|--------------------------------------------------------------------|



CHORUS                                        |----[SLIDE Harmonics]---------|
E|---------------------------------------------------------------------------|
b|---------------------------------------------------------------------------|
G|---------------------------------------------------------------------------|
D|---------------------------------------------------------------------------|  x4
A|-0-0--------0-0-0----------------------------------------------------------|
D|-0-0-(3)(3)-0-0-0-(4)-(3)(3)-0-0-(3)(3)-0-0-(5)/(5)/(4)/(4)/(3)/(3)/(2)----|



BASS verse //converted to GUITAR
E|--------------------------------------------------------------------|
b|--------------------------------------------------------------------|
G|--------------------------------------------------------------------|
D|--------------------------------------------------------------------|  x12
A|---4-2h5---5---4-2h4------------------------------------------------|
D|-4-------4---4------------------------------------------------------|
   . . . . . . . . . .


CHORUS                                        |----[SLIDE Harmonics]---------|
E|---------------------------------------------------------------------------|
b|---------------------------------------------------------------------------|
G|---------------------------------------------------------------------------|
D|---------------------------------------------------------------------------|  x4
A|-0-0--------0-0-0----------------------------------------------------------|
D|-0-0-(3)(3)-0-0-0-(4)-(3)(3)-0-0-(3)(3)-0-0-(5)/(5)/(4)/(4)/(3)/(3)/(2)----|



BASS verse //converted to GUITAR
E|--------------------------------------------------------------------|
b|--------------------------------------------------------------------|
G|--------------------------------------------------------------------|
D|--------------------------------------------------------------------|  x12
A|---4-2h5---5---4-2h4------------------------------------------------|
D|-4-------4---4------------------------------------------------------|
   . . . . . . . . . .


CHORUS                                        |----[SLIDE Harmonics]---------|
E|---------------------------------------------------------------------------|
b|---------------------------------------------------------------------------|
G|---------------------------------------------------------------------------|
D|---------------------------------------------------------------------------|  x4
A|-0-0--------0-0-0----------------------------------------------------------|
D|-0-0-(3)(3)-0-0-0-(4)-(3)(3)-0-0-(3)(3)-0-0-(5)/(5)/(4)/(4)/(3)/(3)/(2)----|



BRIDGE (first part) - BASS  //converted to GUITAR
E|---------------------------|
b|---------------------------|
G|---------------------------|
D|-----4--4--------2---2/4---|  x8
A|---4---4-------2-----------|
D|-4-----------2-------------|



BRIDGE (second part) DISTORTED
E|-----------------------------------------------------------------------|
b|-----------------------------------------------------------------------|
G|-----------------------------------------------------------------------|
D|---------4--2h4p2-4-2-0022---------4--2h4p2-4-2------------------------| x2
A|---2h4p2-4--2h4p2-4-2-0022---2h4p2-4--2h4p2-4-2-4----------------------|
D|---------4--2h4p2-4-2-0022---------4--2h4p2-4-2------------------------|



BRIDGE (third part) PALM MUTED (everything but the 4 in the end)
E|-----------------------------------------------------------------------|
b|-----------------------------------------------------------------------|
G|-----------------------------------------------------------------------|
D|---------4--2h4p2-4-2-0022---------4--2h4p2-4-2------------------------| x2
A|---2h4p2-4--2h4p2-4-2-0022---2h4p2-4--2h4p2-4-2-4----------------------|
D|---------4--2h4p2-4-2-0022---------4--2h4p2-4-2------------------------|
     . . . .  . . . . . ....   . . . .  . . . . .


BRIDGE (fourth part) DISTORTED
E|-----------------------------------------------------------------------|
b|-----------------------------------------------------------------------|
G|-----------------------------------------------------------------------|
D|---------4--2h4p2-4-2-0022---------4--2h4p2-4-2------------------------| x5
A|---2h4p2-4--2h4p2-4-2-0022---2h4p2-4--2h4p2-4-2-4----------------------|
D|---------4--2h4p2-4-2-0022---------4--2h4p2-4-2------------------------|


(only the last 4 to be bend)    DISTORTED
E|-----------------------------------------------------------------------|
b|-----------------------------------------------------------------------|
G|-----------------------------------------------------------------------|
D|---------4--2h4p2-4-2-0022---------4--2h4p2-4-2------------------------| x1
A|---2h4p2-4--2h4p2-4-2-0022---2h4p2-4--2h4p2-4-2-4b~--------------------|
D|---------4--2h4p2-4-2-0022---------4--2h4p2-4-2------------------------|
Tap to rate this tab
 
# A B C D E F G H I J K L M N O P Q R S T U V W X Y Z