Song name
# A B C D E F G H I J K L M N O P Q R S T U V W X Y Z

Limp Bizkit - Dont Go Off Wandering tab

Limp Bizkit - Don’t Go Off Wandering (Significant Other)
Tabbed By Noviz
Tuning - Standard C# (low to high C# F# B E A# C#)

Legend:
* - Pinch Harmonic
h - Hammer On

Intro:
C#|----------------------------------------|
A#|----------------------------------------|
E |----------------------------------------|
B |-10-10-10------------10-10-10-----------|
F#|-7--7--7--7-7-7-7-7--7--7--7--7-7-7-7-7-|
C#|-8--8--8--0-0-0-0-0--8--8--8--0-0-0-0-0-|


Verse:
C#|--------------------------------|
A#|--------------------------------|
E |-------------9-9-9-9-77-7-77-9--|
B |-----9--------------------------|
F#|-7-------7----------------------|
C#|--------------------------------|
               (x4)

Chorus:
C#|--------------------------------------|
A#|--------------------------------------|
E |---------------------9-9-9-7-7-7------|
B |---9-9-9-9-10-9-9-9-------------------|
F#|---7-7-7-7-7--7-7-7-------------------|
C#|---7-7-7-7-7--7-7-7--8-8-8-8-8-8------|
 “Cuz you don’t   feel nothing at     all..”
                             (x2)

Verse 2:
C#|--------------------------------|
A#|--------------------------------|
E |-------------9-9-9-9-77-7-77-9--|
B |-----9--------------------------|
F#|-7-------7----------------------|
C#|--------------------------------|
               (x2)


C#|----------------------------------------|
A#|-------------8(let ring----10(let ring)-|
E |----------------------------------------|
B |----------------------------------------|
F#|-5h6-6-5h6-6----------------------------|
C#|---------------4h6-6-4h6-6--------------|

Repeat the chorus:

Breakdown;
Riff 1
C#|----------------------------------------|
A#|----------------------------------------|
E |----------------------------------------|
B |-10-10-10------------10-10-10-----------|
F#|-7--7--7--7-7-7-7-7--7--7--7--7-7-7-7-7-|
C#|-8--8--8--0-0-0-0-0--8--8--8--0-0-0-0-0-|

Riff 2
C#|------------------------|
A#|------------------------|
E |------------------------|
B |-------9-----8----------|
F#|-7----------------6-----|
C#|------------------------|

Riff 3
“You said...”
C#|-------------------------------------------|
A#|-------------------------------------------|
E |-------------------------------------------|
B |------9---------8----------12---------11---|
F#|-7---------6---------10----------9---------|
C#|-------------------------------------------|
                 (x2)

C#|-------------------------------------------|
A#|-------------------------------------------|
E |-------------------------------------------|
B |------9------------------12----------------|
F#|-7------------------10--------11*----------|
C#|---------0-0-0-0-0----------0----0-0-0-----|
                 (x2)

Repeat the Chorus

Outro:
C#|----------------------------------------|
A#|----------------------------------------|
E |----------------------------------------|
B |-10-10-10------------10-10-10-----------|
F#|-7--7--7--7-7-7-7-7--7--7--7--7-7-7-7-7-|
C#|-8--8--8--0-0-0-0-0--8--8--8--0-0-0-0-0-|

Any corrections - email me at novizdead@yahoo.com

Plz rate!
Tap to rate this tab
# A B C D E F G H I J K L M N O P Q R S T U V W X Y Z