Song name
# A B C D E F G H I J K L M N O P Q R S T U V W X Y Z

Limp Bizkit - Re-entry tab

Artist: Limp Bizkit
Title: Reentry

Tuning: C#-F#-B-E-G#-C#


  Intro: w/heavy dist.
 |------------------------------------------------|
 |------------------------------------------------|x2
 |------------------------------------------------|
 |-7-7---------------------5----------------------|
 |-5-5-6p5p0-5p0-5p0-6p5p0-3--6p5p0-5p0-5p0-6p5p0-|
 |------------------------------------------------|

  Fill.1: w/heavy dist
|------------------------
|------------------------
|------------------------
|--9-0-0-8-0-0-7-------
|--7-0-0-6-0-0-5-------
|------------------------

  Verse: w/dist
 |-----------------------------15--------------|
 |---------------15-------------------------15-|
 |-12------------------------------------------|
 |---------------------------------------------|
 |---------------------------------------------|
 |---------------------------------------------|


 |---|
 |---|
 |-7-|end chord
 |-7-|
 |-5-|
 |---|
Tap to rate this tab
 
# A B C D E F G H I J K L M N O P Q R S T U V W X Y Z