Song name
# A B C D E F G H I J K L M N O P Q R S T U V W X Y Z

Limp Bizkit - Nevermind Live tab

Limp Bizkit - Nevermind (Live in Finsbury Park)
Tabbed by: Xavieres
Tuning: Drop C# (C#,G#,E,B,F#,c#)

Verse: x6
|--------------------------------------------------|
|--------------------------------------------------|
|-----2----2---2---2--2-2-2-----2----2------2----2-|
|-0------0---0-------------------------------------|
|---------------------------3------3----3------3---|
|---------------------------3------3----3------3---|

Chorus:(I'm not sure that Fred played this)
|------------------------------------------------------------|--------------|
|------------------------------------------------------------|--------------|
|------------------------------------------------------------|--------------|
|-10--10--10-10-10-11--11--11-11-11--------------------------|-10----11-----|
|-x---x---x--x--x--x---x---x--x--x--3--3--3-3-3-3--3---3-3-3-|-x-----x------|
|-8---8---8--8--8--9---9---9--9--9--3--3--3-3-3-3--3---3-3-3-|-8-----9------|
                              x3

Verse: x2
|--------------------------------------------------|
|--------------------------------------------------|
|-----2----2---2---2--2-2-2-----2----2------2----2-|
|-0------0---0-------------------------------------|
|---------------------------3------3----3------3---|
|---------------------------3------3----3------3---|

And then comes the heavy part of Fred playing his guitar.
That's all
Tap to rate this tab
 
# A B C D E F G H I J K L M N O P Q R S T U V W X Y Z