Song name
# A B C D E F G H I J K L M N O P Q R S T U V W X Y Z

Limp Bizkit - Underneath The Gun tab

Unterneath the Gun

Tuning: C#, F#, B#, e, g#, c#

Intro:
|--3--2--2---------------------------|
|--3--3--3---------------------------|
|--2--2--2---------------------------|
|--------0---------------------------|
|------------------------------------|
|------------------------------------| x4
Verse:
|--3--2--2-------|
|--3--3--3-------|
|--2--2--2-------|
|--------0-------|
|----------------|
|----------------| x10
Pre-Chorus:
|--3-3-3-3-3-3-3-3-3-3-3-3-3/5-5-5-5-5-5-5-5-5-5--3--2--2---|
|--3-3-3-3-3-3-3-3-3-3-3-3-3/5-5-5-5-5-5-5-5-5-5--3--3--3---|
|--0-0-0-0-0-0-0-0-0-0-0-0-0-2-2-2-2-2-2-2-2-2-2--2--2--2---|
|-------------------------------------------------------0---|
|-----------------------------------------------------------|
|-----------------------------------------------------------| x2
Play Verse
Play Pre-Chorus
Chorus:
|-----------------------------------------------------------------------|
|-----------------------------------------------------------------------|
|------7-7\5-----7-7\5-----7-7\5-[5]-[7]-5-5-5-5-5-5-5-5-5-5-5-5--------|
|--7-7-7-7\5-7-7-7-7\5-7-7-7-7\5---[7]---5-5-5-5-5-5-5-5-5-5-5-5--------|
|--5-5-5-5\3-5-5-5-5\3-5-5-5-5\3---------3-3-3-3-3-3-3-3-3-3-3-3--------|
|-----------------------------------------------------------------------|
   * *       * *       * * 					         x2
|----------------------------------|
|----------------------------------|
|----------------------------------|
|--5-5-5-5-5-5-5-5-5-5-5-5---------|
|--5-5-5-5-5-5-5-5-5-5-5-5---------|
|--3-3-3-3-3-3-3-3-3-3-3-3---------|
Solo:
|------------------------------------------------------------------------|
|------------------------------------------------------------------------|
|--/12~~~--11~~~11~11~11h12~11h12~~12~12~12/14~~~17~17~17h19~19~19~19~~--|
|------------------------------------------------------------------------|
|------------------------------------------------------------------------|
|------------------------------------------------------------------------|

|--------------------------------------------------------------------------|
|-----------------------------20~~---------------20~~---------------20~~---|
|--17~17~17h19~19~19~19~19~19~----19~19~19~19~19~----19~19~19~19~19~-------|
|--------------------------------------------------------------------------|
|--------------------------------------------------------------------------|
|--------------------------------------------------------------------------|

|----------20-19-17----17--------------------------------------------------|
|------20~~---------20----20-19-17----17-----------------------------------|
|--19~~----19~~--------------------19---19-17-19^-^19-17----17-19-17-19~~--|
|--------------------------------------------------------19----------------|
|--------------------------------------------------------------------------|
|--------------------------------------------------------------------------|

|--20-19-17----17-----------------------------|
|-----------20----20-19-17----17--------------|
|--------------------------19---19-17---------|
|---------------------------------------------|
|---------------------------------------------|
|---------------------------------------------| x2
Play Chorus x1
|--------------------------------------------------------------------------|
|--------------------------------------------------------------------------|
|------7-7\5-----7-7\5-----7-7\5-[5]-[7]-5-5-5-5-5-5-5-5-5-5-5-5-----------|
|--7-7-7-7\5-7-7-7-7\5-7-7-7-7\5---[7]---5-5-5-5-5-5-5-5-5-5-5-5-5---------|
|--5-5-5-5\3-5-5-5-5\3-5-5-5-5\3---------3-3-3-3-3-3-3-3-3-3-3-3-5---------|
|----------------------------------------------------------------3---------|
   * *       * *       * *
Bridge:
|----------------------------------------------------------------------|
|----------------------------------------------------------------------|
|--10-------------9/10-------------9/10--------------------------------|
|--10-10-10-10-10-9/10-10-10-10-10-9/10-10-10-10-10-10-----------------|
|---8--8--8--8--8-7/-8--8--8--8--8-7/-8--8--8--8--8--8-2-2-2-2-2-2-----|
|------------------------------------------------------0-0-0-0-0-0-----| x10
       *  *  *  *       *  *  *  *       *  *  *  *  * * * * * * *
Bridge II: (x2)
|------------------------------------------------------------------------|
|------------------------------------------------------------------------|
|--------------------------9-9-9-9-9-9-9-9-9-9-9-9-----------------------|
|--7-7-7-7-7-7-7-7-7-7-7-7-9-9-9-9-9-9-9-9-9-9-9-9-----------------------|
|--7-7-7-7-7-7-7-7-7-7-7-7-7-7-7-7-7-7-7-7-7-7-7-7-----------------------|
|--5-5-5-5-5-5-5-5-5-5-5-5-----------------------------------------------|

|--------------------------------------------------------------------------|
|--------------------------------------------------------------------------|
|--4-4-4-4-4-4-4-4-4-4-4-4-4-4-4-4-4-4-4-4-4-4-4-4-------------------------|
|--4-4-4-4-4-4-4-4-4-4-4-4-4-4-4-4-4-4-4-4-4-4-4-4-------------------------|
|--2-2-2-2-2-2-2-2-2-2-2-2-2-2-2-2-2-2-2-2-2-2-2-2-------------------------|
|--------------------------------------------------------------------------|

|--------------------------------------------------------------------------|
|--------------------------------------------------------------------------|
|--------------------------4-4-4-4-4-4-4-4-4-4-4-4-------------------------|
|--7-7-7-7-7-7-7-7-7-7-7-7-4-4-4-4-4-4-4-4-4-4-4-4-------------------------|
|--7-7-7-7-7-7-7-7-7-7-7-7-2-2-2-2-2-2-2-2-2-2-2-2-------------------------|
|--5-5-5-5-5-5-5-5-5-5-5-5-------------------------------------------------|

|--------------------------------------------------------------------------|
|--------------------------------------------------------------------------|
|--------------------------11-11-11-11-11-11-13-13-14-14-13-13-------------|
|--4-4-4-4-4-4-4-4-4-4-4-4--x--x--x--x--x--x--x--x--x--x--x--x-------------|
|--4-4-4-4-4-4-4-4-4-4-4-4--9--9--9--9--9--9-11-11-12-12-11-11-------------|
|--2-2-2-2-2-2-2-2-2-2-2-2-------------------------------------------------|
Play Pre-Chorus x1
Play Solo
Play Chorus x3
|--------------------------------------------------------------------------|
|--------------------------------------------------------------------------|
|------7-7\5-----7-7\5-----7-7\5-[5]-[7]-5-5-5-5-5-5-5-5-5-5-5-5-----------|
|--7-7-7-7\5-7-7-7-7\5-7-7-7-7\5---[7]---5-5-5-5-5-5-5-5-5-5-5-5-5---------|
|--5-5-5-5\3-5-5-5-5\3-5-5-5-5\3---------3-3-3-3-3-3-3-3-3-3-3-3-5---------|
|----------------------------------------------------------------3---------|
   * *       * *       * *
Many thanx and all credits goes to bizkitclan. I just wrote it down and put it in 
tunging 2 whole steps down because I don't really like Drop-Tunings.
Tap to rate this tab
# A B C D E F G H I J K L M N O P Q R S T U V W X Y Z