Song name
# A B C D E F G H I J K L M N O P Q R S T U V W X Y Z

Limp Bizkit - Channel tab

Limp Bizkit
The Channel
The Unquestionable Truth (Part 1)

Standard tuning

Verse/Intro
e-------------------------------------------------------------------|
b-------------------------------------------------------------------|
g-------------------------------------------------------------------|
d-----------------------------------------------------------------3-|
a----7--10--7h8-----7--10-000-7h8----7--10-000--7h8----7--10-000----|
e--0-------------0--------000------0-------000-------0-------000----|
                          ...              ...               ...
Chorus
e----------------------------------------------|
b----------------------------------------------|
g----------------------------------------------|  Not so sure on this part
d----------------------------------------------|
a--14-12-12h14p12-10-10s12s10--9-10s12s10--9-7-|
e----------------------------------------------|

Post Chorus/Bridge
e--------------|
b--------------|
g----9-----7---|s9    repeat as necessary
d----9-----7s9-|
a--------------|
e-0-----0------|

thats it, not sure its perfect but sumone can fix it up.
Tap to rate this tab
# A B C D E F G H I J K L M N O P Q R S T U V W X Y Z