Guitaretab - guitar tabs
Song name
# A B C D E F G H I J K L M N O P Q R S T U V W X Y Z

Limp Wrist - Whats Up With The Kids tab

-------------------------------------------------------------------------------
What's Up With The Kids - Limp Wrist
Thee Official Limp Wrist Discography
-------------------------------------------------------------------------------
Tabbed by: axeslash
Email: holmzito@yahoo.com

Tuning: Both guitars standard

Guitar 1:
e|----------------------------------|
B|----------------------------------|
G|-9-9-9-9---------9-9-9-9----------|
D|-9-9-9-9-9-7---7-9-9-9-9-9-7----7-|
A|-7-7-7-7-9-7---7-7-7-7-7-9-7----7-|
E|---------7-5---5---------7-5----5-|

Guitars 1 & 2:                         Guitars 1 & 2:
e|-------------------------------|     e|-----------------------------------------------|
B|-------------------------------|     B|-----------------------------------------------|
G|-9-9-9-9--------9-9-9-9--------|     G|-9-9-9-9--------9-9-9-9------------------------|
D|-9-9-9-9-9-7----9-9-9-9-9-7----|     D|-9-9-9-9-9-7----9-9-9-9-9-7--------------------|
A|-7-7-7-7-9-7----7-7-7-7-9-7----|     A|-7-7-7-7-9-7----7-7-7-7-9-7----6-6-6-6-8-8-8-8-|
E|---------7-5------------7-5----| x2  E|---------7-5------------7-5----6-6-6-6-8-8-8-8-|

Guitars 1 & 2:                         Guitars 1 & 2:
e|-------------------------------|     e|-----------------------------------------------|
B|-------------------------------|     B|-----------------------------------------------|
G|-9-9-9-9--------9-9-9-9--------|     G|-9-9-9-9--------9-9-9-9------------------------|
D|-9-9-9-9-9-7----9-9-9-9-9-7----|     D|-9-9-9-9-9-7----9-9-9-9-9-7--------------------|
A|-7-7-7-7-9-7----7-7-7-7-9-7----|     A|-7-7-7-7-9-7----7-7-7-7-9-7----6-6-6-6-8-8-8-8-|
E|---------7-5------------7-5----| x2  E|---------7-5------------7-5----6-6-6-6-8-8-8-8-|

Guitars 1 & 2:
e|-----------------------------------------------------|
B|-----------------------------------------------------|
G|-9-9--9-9--10-10-10--7-7-7-9-9--9-9--10-10-10--7-7-7-|
D|-9-9--9-9--10-10-10--7-7-7-9-9--9-9--10-10-10--7-7-7-|
A|-7-7--7-7---8--8--8--5-5-5-7-7--7-7---8--8--8--5-5-5-|
E|-----------------------------------------------------|
[ Tab from: http://www.guitaretab.com/l/limp-wrist/102524.html ]
Guitars 1 & 2:                         Guitars 1 & 2:
e|-------------------------------|     e|-----------------------------------------------|
B|-------------------------------|     B|-----------------------------------------------|
G|-9-9-9-9--------9-9-9-9--------|     G|-9-9-9-9--------9-9-9-9------------------------|
D|-9-9-9-9-9-7----9-9-9-9-9-7----|     D|-9-9-9-9-9-7----9-9-9-9-9-7--------------------|
A|-7-7-7-7-9-7----7-7-7-7-9-7----|     A|-7-7-7-7-9-7----7-7-7-7-9-7----6-6-6-6-8-8-8-8-|
E|---------7-5------------7-5----| x2  E|---------7-5------------7-5----6-6-6-6-8-8-8-8-|

Guitars 1 & 2:                         Guitars 1 & 2:
e|-------------------------------|     e|-----------------------------------------------|
B|-------------------------------|     B|-----------------------------------------------|
G|-9-9-9-9--------9-9-9-9--------|     G|-9-9-9-9--------9-9-9-9------------------------|
D|-9-9-9-9-9-7----9-9-9-9-9-7----|     D|-9-9-9-9-9-7----9-9-9-9-9-7--------------------|
A|-7-7-7-7-9-7----7-7-7-7-9-7----|     A|-7-7-7-7-9-7----7-7-7-7-9-7----6-6-6-6-8-8-8-8-|
E|---------7-5------------7-5----| x2  E|---------7-5------------7-5----6-6-6-6-8-8-8-8-|

Guitars 1 & 2:
e|-----------------------------------------------------|
B|-----------------------------------------------------|
G|-9-9--9-9--10-10-10--7-7-7-9-9--9-9--10-10-10--7-7-7-|
D|-9-9--9-9--10-10-10--7-7-7-9-9--9-9--10-10-10--7-7-7-|
A|-7-7--7-7---8--8--8--5-5-5-7-7--7-7---8--8--8--5-5-5-|
E|-----------------------------------------------------|

Guitars 1 & 2:
e|-----------------------------------------------------------------------------------|
B|-----------------------------------------------------------------------------------|
G|-9----------------------------------------9----------------------------------------|
D|-9----------------------------------------9----------------------------------------|
A|-7----------------------------------------7----------------------------------------|
E|-----------------------------------------------------------------------------------|

Guitars 1 & 2:
e|------------------------------|
B|------------------------------|
G|-9--9-------10--10-10---------|
D|-9--9--7--7-10--10-10--10-9-7-|
A|-7--7--7--7--8---8--8--10-9-7-|
E|-------5--5-------------8-7-5-| x4

Guitars 1 & 2:                         Guitars 1 & 2:
e|-------------------------------|     e|---------------------------------|
B|-------------------------------|     B|---------------------------------|
G|-9-9-9-9--------9-9-9-9--------|     G|-9-9-9-9--------9-9-9-9--------9-|
D|-9-9-9-9-9-7----9-9-9-9-9-7----|     D|-9-9-9-9-9-7----9-9-9-9-9-7----9-|
A|-7-7-7-7-9-7----7-7-7-7-9-7----|     A|-7-7-7-7-9-7----7-7-7-7-9-7----7-|
E|---------7-5------------7-5----| x2  E|---------7-5------------7-5------|


| /  slide up
| \  slide down
| h  hammer-on
| p  pull-off
| ~  vibrato
| +  harmonic
| x  Mute note
===============================================================================
Related for Whats Up With The Kids tab
Advertisement will be closed in 10 seconds