Song name
# A B C D E F G H I J K L M N O P Q R S T U V W X Y Z

Limp Wrist - Recruiting Time tab

-------------------------------------------------------------------------------
Recruiting Time - Limp Wrist
Thee Official Limp Wrist Discography
-------------------------------------------------------------------------------
Tabbed by: axeslash
Email: holmzito@yahoo.com

Tuning: Standard

e|------------------|  e|----------------|     e|-------------------|
B|------------------|  B|----------------|     B|-------------------|
G|------------------|  G|---------5------|     G|-------------------|
D|------------------|  D|-4-4-4-4-3-5--5-|     D|-7-7-7-7-7-7-7/10--|
A|-2----------------|  A|-2-2-2-2---3--3-|     A|-5-5-5-5-5-5-5/-8--|
E|------------------|  E|----------------| x4  E|-------------------|

e|----------------|     e|-------------------|
B|----------------|     B|-------------------|
G|---------5------|     G|-------------------|
D|-4-4-4-4-3-5--5-|     D|-7-7-7-7-7-7-7/10--|
A|-2-2-2-2---3--3-|     A|-5-5-5-5-5-5-5/-8--|
E|----------------| x4  E|-------------------|

e|--------------------------------|  e|---------------------------|
B|--------------------------------|  B|---------------------------|
G|--------------------------------|  G|-----------5-------------5-|
D|-4----4----4----4-4-4-4-4-4-4-4-|  D|-4-4-4-4-4-3---7-7-7-7-7-3-|
A|-2----2----2----2-2-2-2-2-2-2-2-|  A|-2-2-2-2-2-----5-5-5-5-5---|
E|---------------[X-X-X-X-X-X-X-X]|  E|---------------------------|

e|-----------------------------------|
B|-----------------------------------|
G|-----------------------------------|
D|-4----------------4----------------|
A|-2----------------2----------------|
E|-----------------------------------|

e|----------------|     e|-------------------|
B|----------------|     B|-------------------|
G|---------5------|     G|---------5---------|
D|-4-4-4-4-3-5--5-|     D|-4-4-4-4-3-5--5-4--|
A|-2-2-2-2---3--3-|     A|-2-2-2-2---3--3-2--|
E|----------------| x3  E|-------------------|


| /  slide up
| \  slide down
| h  hammer-on
| p  pull-off
| ~  vibrato
| +  harmonic
| x  Mute note
===============================================================================
Tap to rate this tab
# A B C D E F G H I J K L M N O P Q R S T U V W X Y Z