Song name
# A B C D E F G H I J K L M N O P Q R S T U V W X Y Z

Limp Wrist - Cruisin At The Show tab

-------------------------------------------------------------------------------
Cruisin' At The Show - Limp Wrist
Thee Official Limp Wrist Discography
-------------------------------------------------------------------------------
Tabbed by: axeslash
Email: holmzito@yahoo.com

Tuning: Standard

e|--------------------------------------------------------|
B|--------------------------------------------------------|
G|----------------------7--7--6--6-6-6-6-6-6-7-7-7--7-7-7-|
D|-2--2-2-2-2-2-2-5-5-5-7--7--6--6-6-6-6-6-6-5-5-7--7-7-7-|
A|-2--2-2-2-2-2-2-5-5-5-5--5--4--4-4-4-4-4-4-----5--5-5-5-|
E|-0--0-0-0-0-0-0-3-3-3-----------------------------------| x4

e|---------------------------|
B|---------------------------|
G|---------------5-----5-----|
D|-7-7-7-4----4--5--4--5--4--|
A|-7-7-7-4----4--3--4--3--4--|
E|-5-5-5-2----2-----2-----2--| x4

e|--------------------------------------------------------|
B|--------------------------------------------------------|
G|----------------------7--7--6--6-6-6-6-6-6-7-7-7--7-7-7-|
D|-2--2-2-2-2-2-2-5-5-5-7--7--6--6-6-6-6-6-6-5-5-7--7-7-7-|
A|-2--2-2-2-2-2-2-5-5-5-5--5--4--4-4-4-4-4-4-----5--5-5-5-|
E|-0--0-0-0-0-0-0-3-3-3-----------------------------------| x4

e|---------------------------|
B|---------------------------|
G|---------------5-----5-----|
D|-7-7-7-4----4--5--4--5--4--|
A|-7-7-7-4----4--3--4--3--4--|
E|-5-5-5-2----2-----2-----2--| x4

e|----------------------------------------------------------------------|
B|----------------------------------------------------------------------|
G|-7-7-7-7-7-7-7-7-7-7-7-7-7-7-7-7-7-7-7-7-7-7-7-7-7-7-7-7-7-7-7-7-7----|
D|-7-7-7-7-7-7-7-7-7-7-7-7-7-7-7-7-7-7-7-7-7-7-7-7-7-7-7-7-7-7-7-7-7----|
A|-5-5-5-5-5-5-5-5-5-5-5-5-5-5-5-5-5-5-5-5-5-5-5-5-5-5-5-5-5-5-5-5-5----|
E|----------------------------------------------------------------------|


| /  slide up
| \  slide down
| h  hammer-on
| p  pull-off
| ~  vibrato
| +  harmonic
| x  Mute note
===============================================================================
Tap to rate this tab
 
# A B C D E F G H I J K L M N O P Q R S T U V W X Y Z