Song name
# A B C D E F G H I J K L M N O P Q R S T U V W X Y Z

Limp Wrist - Does Your Daddy Know tab

-------------------------------------------------------------------------------
Does Your Daddy Know? - Limp Wrist
Thee Official Limp Wrist Discography
-------------------------------------------------------------------------------
Tabbed by: axeslash
Email: holmzito@yahoo.com

Tuning: Standard

e|--------------------------------|     e|--------------------------------|
B|--------------------------------|     B|--------------------------------|
G|--------------------------------|     G|-9-9--11-9------------12-12-12--|
D|-9-7--10-8--8-8-8-8-8-8-8-8-8-8-|     D|-9-9--11-9--11-11-11--12-12-12--|
A|-9-7--10-8--8-8-8-8-8-8-8-8-8-8-|     A|-7-7---9-7--11-11-11--10-10-10--|
E|-7-5---8-6--6-6-6-6-6-6-6-6-6-6-| x4  E|-------------9--9--9------------| x4
	     [X-X-X-X-X-X-X-X-X-X]

e|--------------------------------|     e|--------------------------------|
B|--------------------------------|     B|--------------------------------|
G|--------------------------------|     G|-9-9--11-9------------12-12-12--|
D|-9-7--10-8--8-8-8-8-8-8-8-8-8-8-|     D|-9-9--11-9--11-11-11--12-12-12--|
A|-9-7--10-8--8-8-8-8-8-8-8-8-8-8-|     A|-7-7---9-7--11-11-11--10-10-10--|
E|-7-5---8-6--6-6-6-6-6-6-6-6-6-6-| x4  E|-------------9--9--9------------| x4
	     [X-X-X-X-X-X-X-X-X-X]

e|-------------------------------------------------------------|
B|-------------------------------------------------------------|
G|-------------------------------------------------------------|
D|-7--7-7-7-7-7-7-7--7-7-7-7-7-7-7--7-7-7-7-7-7-7--7-7-7-7-7-7-|
A|-7--7-7-7-7-7-7-7--7-7-7-7-7-7-7--7-7-7-7-7-7-7--7-7-7-7-7-7-|
E|-5--5-5-5-5-5-5-5--5-5-5-5-5-5-5--5-5-5-5-5-5-5--5-5-5-5-5-5-|
     [X-X-X-X-X-X]  [X-X-X-X-X-X]  [X-X-X-X-X-X]  [X-X-X-X-X-X]

e|-------------------------------------|
B|-------------------------------------|
G|----------10-10-10----------12-12----|
D|-7--7-7-7-10-10-10-9--9-9-9-12-12-12-|
A|-7--7-7-7--8--8--8-9--9-9-9-10-10-12-|
E|-5--5-5-5----------7--7-7-7-------10-| x4

e|------------------------------------------|
B|------------------------------------------|
G|------------------------------------------|
D|-------------10-10---------12-12-12-------|
A|-7-7-7-7-7-7--8--8-9-9-9-9-10-10-10-12-12-|
E|-5-5-5-5-5-5-------7-7-7-7----------10-10-| x4

e|-------------------------------------|
B|-------------------------------------|
G|----------10-10-10----------12-12----|
D|-7--7-7-7-10-10-10-9--9-9-9-12-12-12-|
A|-7--7-7-7--8--8--8-9--9-9-9-10-10-12-|
E|-5--5-5-5----------7--7-7-7-------10-| x3

e|------------------------------------------|
B|------------------------------------------|
G|----------10-10-10----------12-12---------|
D|-7--7-7-7-10-10-10-9--9-9-9-12-12-12-9----|
A|-7--7-7-7--8--8--8-9--9-9-9-10-10-12-9----|
E|-5--5-5-5----------7--7-7-7-------10-7----|


| /  slide up
| \  slide down
| h  hammer-on
| p  pull-off
| ~  vibrato
| +  harmonic
| x  Mute note
===============================================================================
Tap to rate this tab
 
# A B C D E F G H I J K L M N O P Q R S T U V W X Y Z