Song name
# A B C D E F G H I J K L M N O P Q R S T U V W X Y Z

Limp Wrist - Smear The Fear tab

-------------------------------------------------------------------------------
Smear The Fear - Limp Wrist
Thee Official Limp Wrist Discography
-------------------------------------------------------------------------------
Tabbed by: axeslash
Email: holmzito@yahoo.com

Tuning: Both guitars Standard tuning

Guitar 1:
e|-----------------------------------------------------------------|
B|-----------------------------------------------------------------|
G|-4-4-4-4-4-4-4-4-4-4-4-4-4-4-4-4-4-4-4-4-4-4-4-4-4-4-4-4-4-4-4-4-|
D|-4-4-4-4-4-4-4-4-4-4-4-4-4-4-4-4-4-4-4-4-4-4-4-4-4-4-4-4-4-4-4-4-|
A|-2-2-2-2-2-2-2-2-2-2-2-2-2-2-2-2-2-2-2-2-2-2-2-2-2-2-2-2-2-2-2-2-|
E|-----------------------------------------------------------------|

Guitars 1 & 2:
e|-----------------------------------------------------------------|
B|-----------------------------------------------------------------|
G|-4-4-4-4-4-4-4-4-4-4-4-4-4-4-4-4-4-4-4-4-4-4-4-4-4-4-4-4-4-4-4-4-|
D|-4-4-4-4-4-4-4-4-4-4-4-4-4-4-4-4-4-4-4-4-4-4-4-4-4-4-4-4-4-4-4-4-|
A|-2-2-2-2-2-2-2-2-2-2-2-2-2-2-2-2-2-2-2-2-2-2-2-2-2-2-2-2-2-2-2-2-|
E|-----------------------------------------------------------------|

Guitars 1 & 2:
e|-------------------------------------------------------------|
B|-------------------------------------------------------------|
G|-4-4-4-4-4-4-4-4---------7-7-7-7-10--10----10----10--10--10--|
D|-4-4-4-4-4-4-4-4-7-7-7-7-7-7-7-7-10--10----10----10--10--10--|
A|-2-2-2-2-2-2-2-2-7-7-7-7-5-5-5-5--8---8-----8-----8---8---8--|
E|-----------------5-5-5-5-------------------------------------| x4

Guitars 1 & 2:
e|-------------------------------------------------------|
B|-------------------------------------------------------|
G|-4-4-4-4-4-4-4-4-3-3-3-3-2-2-2-2-----------------------|
D|-4-4-4-4-4-4-4-4-3-3-3-3-2-2-2-2-2--2----2----2--2--2--|
A|-2-2-2-2-2-2-2-2-1-1-1-1-0-0-0-0-2--2----2----2--2--2--|
E|---------------------------------0--0----0----0--0--0--| x2

Guitars 1 & 2:
e|-------------------------------------------------------------|
B|-------------------------------------------------------------|
G|-4-4-4-4-4-4-4-4---------7-7-7-7-10--10----10----10--10--10--|
D|-4-4-4-4-4-4-4-4-7-7-7-7-7-7-7-7-10--10----10----10--10--10--|
A|-2-2-2-2-2-2-2-2-7-7-7-7-5-5-5-5--8---8-----8-----8---8---8--|
E|-----------------5-5-5-5-------------------------------------| x4

Guitars 1 & 2:
e|-------------------------------------------------------|
B|-------------------------------------------------------|
G|-4-4-4-4-4-4-4-4-3-3-3-3-2-2-2-2-----------------------|
D|-4-4-4-4-4-4-4-4-3-3-3-3-2-2-2-2-2--2----2----2--2--2--|
A|-2-2-2-2-2-2-2-2-1-1-1-1-0-0-0-0-2--2----2----2--2--2--|
E|---------------------------------0--0----0----0--0--0--|

Guitars 1 & 2:
e|------------------------------------------------------------|
B|------------------------------------------------------------|
G|-4-4-4-4-4-4-4-4-3-3-3-3-2-2-2-2----------------------------|
D|-4-4-4-4-4-4-4-4-3-3-3-3-2-2-2-2-2--2----2----2--2--2--2----|
A|-2-2-2-2-2-2-2-2-1-1-1-1-0-0-0-0-2--2----2----2--2--2--2----|
E|---------------------------------0--0----0----0--0--0--0----|


| /  slide up
| \  slide down
| h  hammer-on
| p  pull-off
| ~  vibrato
| +  harmonic
| x  Mute note
===============================================================================
Tap to rate this tab
 
# A B C D E F G H I J K L M N O P Q R S T U V W X Y Z