Song name
# A B C D E F G H I J K L M N O P Q R S T U V W X Y Z

Limp Wrist - The Ode tab

-------------------------------------------------------------------------------
The Ode - Limp Wrist
Thee Official Limp Wrist Discography
-------------------------------------------------------------------------------
Tabbed by: axeslash
Email: holmzito@yahoo.com

Tuning: Both guitars Standard

Guitar 1
e|---------------------------------|
B|---------------------------------|
G|-9-9-9-9-9-9-9-9-9-9-9-9-9-9-9-9-|
D|-9-9-9-9-9-9-9-9-9-9-9-9-9-9-9-9-|
A|-7-7-7-7-7-7-7-7-7-7-7-7-7-7-7-7-|
E|---------------------------------|

Guitars 1 & 2:
e|-------------------------------------------------------------------|
B|-------------------------------------------------------------------|
G|-9-9-9-9-9-9-9-9-----------------7-7-7-7-7-7-10-10-9-9-9-9-9-9-9-9-|
D|-9-9-9-9-9-9-9-9-8-8-8-8-8-8-8-8-7-7-7-7-7-7-10-10-9-9-9-9-9-9-9-9-|
A|-7-7-7-7-7-7-7-7-8-8-8-8-8-8-8-8-5-5-5-5-5-5--8--8-7-7-7-7-7-7-7-7-|
E|-----------------6-6-6-6-6-6-6-6-----------------------------------| x2

Guitars 1 & 2:
e|---------------------------------------------------------------------|
B|---------------------------------------------------------------------|
G|-10-9-9-9-9-9-9-9-10-9-9-9-9-9-9-9-10-9-9-9-9-9-9-9-10-9-9-9-9-9-9-9-|
D|-10-9-9-9-9-9-9-9-10-9-9-9-9-9-9-9-10-9-9-9-9-9-9-9-10-9-9-9-9-9-9-9-|
A|--8-7-7-7-7-7-7-7--8-7-7-7-7-7-7-7--8-7-7-7-7-7-7-7--8-7-7-7-7-7-7-7-|
E|---------------------------------------------------------------------|

Guitars 1 & 2:
e|-------------------------------------------------------------------|
B|-------------------------------------------------------------------|
G|-9-9-9-9-9-9-9-9-----------------7-7-7-7-7-7-10-10-9-9-9-9-9-9-9-9-|
D|-9-9-9-9-9-9-9-9-8-8-8-8-8-8-8-8-7-7-7-7-7-7-10-10-9-9-9-9-9-9-9-9-|
A|-7-7-7-7-7-7-7-7-8-8-8-8-8-8-8-8-5-5-5-5-5-5--8--8-7-7-7-7-7-7-7-7-|
E|-----------------6-6-6-6-6-6-6-6-----------------------------------| x2

Guitars 1 & 2:
e|---------------------------------------------------------------------|
B|---------------------------------------------------------------------|
G|-10-9-9-9-9-9-9-9-10-9-9-9-9-9-9-9-10-9-9-9-9-9-9-9-10-9-9-9-9-9-9-9-|
D|-10-9-9-9-9-9-9-9-10-9-9-9-9-9-9-9-10-9-9-9-9-9-9-9-10-9-9-9-9-9-9-9-|
A|--8-7-7-7-7-7-7-7--8-7-7-7-7-7-7-7--8-7-7-7-7-7-7-7--8-7-7-7-7-7-7-7-|
E|---------------------------------------------------------------------|

Guitars 1 & 2:			       Guitars 1 & 2:
e|-------------------------------|     e|-----------------|
B|-------------------------------|     B|-----------------|
G|-------------12--9-9-9-9-9-9-9-|     G|-------------12--|
D|-9--8--------12--9-9-9-9-9-9-9-|     D|-9--8--------12--|
A|-9--8--------10--7-7-7-7-7-7-7-|     A|-9--8--------10--|
E|-7--6--------------------------| x3  E|-7--6------------|

Guitars 1 & 2:
e|-----------------------------------------------------|
B|-----------------------------------------------------|
G|-9-9-9-9-9---9-9-9-9-----9-9-9-9-9---9-9-9-9-9-9-9-9-|
D|-9-9-9-9-9---9-9-9-9-----9-9-9-9-9---9-9-9-9-9-9-9-9-|
A|-7-7-7-7-7---7-7-7-7-7---7-7-7-7-7---7-7-7-7-7-7-7-7-|
E|-----------------------------------------------------|

Guitars 1 & 2:
e|-------------------------------------------------------------------|
B|-------------------------------------------------------------------|
G|-9-9-9-9-9-9-9-9-----------------7-7-7-7-7-7-10-10-9-9-9-9-9-9-9-9-|
D|-9-9-9-9-9-9-9-9-8-8-8-8-8-8-8-8-7-7-7-7-7-7-10-10-9-9-9-9-9-9-9-9-|
A|-7-7-7-7-7-7-7-7-8-8-8-8-8-8-8-8-5-5-5-5-5-5--8--8-7-7-7-7-7-7-7-7-|
E|-----------------6-6-6-6-6-6-6-6-----------------------------------| x2

Guitars 1 & 2:
e|------------------------------------------------------------------------|
B|------------------------------------------------------------------------|
G|-10-9-9-9-9-9-9-9-10-9-9-9-9-9-9-9-10-9-9-9-9-9-9-9-10-9-9-9-9-9-9-9----|
D|-10-9-9-9-9-9-9-9-10-9-9-9-9-9-9-9-10-9-9-9-9-9-9-9-10-9-9-9-9-9-9-9----|
A|--8-7-7-7-7-7-7-7--8-7-7-7-7-7-7-7--8-7-7-7-7-7-7-7--8-7-7-7-7-7-7-7----|
E|------------------------------------------------------------------------|


| /  slide up
| \  slide down
| h  hammer-on
| p  pull-off
| ~  vibrato
| +  harmonic
| x  Mute note
===============================================================================
Tap to rate this tab
# A B C D E F G H I J K L M N O P Q R S T U V W X Y Z