Song name
# A B C D E F G H I J K L M N O P Q R S T U V W X Y Z

Limp Wrist - Twelve Years Of Church tab

Help us improve GuitareTab! Take a short survey!
-------------------------------------------------------------------------------
Twelve Years Of Church - Limp Wrist
Thee Official Limp Wrist Discography
-------------------------------------------------------------------------------
Tabbed by: axeslash
Email: holmzito@yahoo.com

Tuning: Standard

e|-------------------------------------------------------------------------------------------|
B|-------------------------------------------------------------------------------------------|
G|-8-8------6-6------8-8------6-6------9-9-9-9-9-9-9-9-9-9-9-9-9-9-9-9-----------------------|
D|-8-8-8----6-6-6----8-8-8----6-6-6----9-9-9-9-9-9-9-9-9-9-9-9-9-9-9-9-5--5----5--5--5----5--|
A|-6-6-8----4-4-6----6-6-8----4-4-6----7-7-7-7-7-7-7-7-7-7-7-7-7-7-7-7-5--5----5--5--5----5--|
E|-----6--------4--------6--------4------------------------------------3--3----3--3--3----3--| x4

e|-------------------------------------------------------|
B|-------------------------------------------------------|
G|-9-9-9-9-9-9-9-9-9-9-9-9-9-9-9-9-----------------------|
D|-9-9-9-9-9-9-9-9-9-9-9-9-9-9-9-9-5--5----5--5--5----5--|
A|-7-7-7-7-7-7-7-7-7-7-7-7-7-7-7-7-5--5----5--5--5----5--|
E|---------------------------------3--3----3--3--3----3--|

e|-------------------------------|     e|--------------------------------------------|
B|-------------------------------|     B|--------------------------------------------|
G|-7--7--7--7--7--7--7--8--------|     G|--------------------------------------------|
D|-7--7--7--7--7--7--7--8--------|     D|-8--8----8--8--8----8--5--5----5---5---5----|
A|-5--5--5--5--5--5--5--6--------|     A|-8--8----8--8--8----8--5--5----5---5---5----|
E|-------------------------------| x2  E|-6--6----6--6--6----6--3--3----3---3---3----|

e|-------------------------------|     e|--------------------------------------------|
B|-------------------------------|     B|--------------------------------------------|
G|-7--7--7--7--7--7--7--8--------|     G|--------------------------------------------|
D|-7--7--7--7--7--7--7--8--------|     D|-8--8----8--8--8----8--5--5----5---5---5----|
A|-5--5--5--5--5--5--5--6--------|     A|-8--8----8--8--8----8--5--5----5---5---5----|
E|-------------------------------| x2  E|-6--6----6--6--6----6--3--3----3---3---3----|

e|-------------------------------------------------------------------------------------------|
B|-------------------------------------------------------------------------------------------|
G|-8-8------6-6------8-8------6-6------9-9-9-9-9-9-9-9-9-9-9-9-9-9-9-9-----------------------|
D|-8-8-8----6-6-6----8-8-8----6-6-6----9-9-9-9-9-9-9-9-9-9-9-9-9-9-9-9-5--5----5--5--5----5--|
A|-6-6-8----4-4-6----6-6-8----4-4-6----7-7-7-7-7-7-7-7-7-7-7-7-7-7-7-7-5--5----5--5--5----5--|
E|-----6--------4--------6--------4------------------------------------3--3----3--3--3----3--| x4

e|-------------------------------------------------------|
B|-------------------------------------------------------|
G|-9-9-9-9-9-9-9-9-9-9-9-9-9-9-9-9-----------------------|
D|-9-9-9-9-9-9-9-9-9-9-9-9-9-9-9-9-5--5----5--5--5----5--|
A|-7-7-7-7-7-7-7-7-7-7-7-7-7-7-7-7-5--5----5--5--5----5--|
E|---------------------------------3--3----3--3--3----3--| x2

e|------------------------------------------|
B|------------------------------------------|
G|-9-9-9-9-9-9-9-9-9-9-9-9-9-9-9-9----------|
D|-9-9-9-9-9-9-9-9-9-9-9-9-9-9-9-9-5--------|
A|-7-7-7-7-7-7-7-7-7-7-7-7-7-7-7-7-5--------|
E|---------------------------------3--------|


| /  slide up
| \  slide down
| h  hammer-on
| p  pull-off
| ~  vibrato
| +  harmonic
| x  Mute note
===============================================================================
Related for Twelve Years Of Church tab