Song name
# A B C D E F G H I J K L M N O P Q R S T U V W X Y Z

Limp Wrist - Stabbed In The Back tab

-------------------------------------------------------------------------------
Stabbed In The Back - Limp Wrist
Thee Official Limp Wrist Discography
-------------------------------------------------------------------------------
Tabbed by: axeslash
Email: holmzito@yahoo.com

Tuning: Standard

e|---------------------------------|
B|---------------------------------|
G|-------6-6--------------8--8-8-7-|
D|-5-5-5-6-6--5-5-5-7-7-7-8--8-8-7-|
A|-5-5-5-4-4--5-5-5-7-7-7-6--6-6-5-|
E|-3-3-3------3-3-3-5-5-5----------| x4

e|----------------------------------------------------------|
B|----------------------------------------------------------|
G|----------------------------------------------------------|
D|-7-7-7-7-7-7-7-7-5-5-5-5-5-5-5-5-7-7-7-7-7-7-7-7-5--------|
A|-7-7-7-7-7-7-7-7-5-5-5-5-5-5-5-5-7-7-7-7-7-7-7-7-5--------|
E|-5-5-5-5-5-5-5-5-3-3-3-3-3-3-3-3-5-5-5-5-5-5-5-5-3--------|

e|-------------------------------|
B|-------------------------------|
G|-------6--------------8--8-8-7-|
D|-5-5-5-6--5-5-5-7-7-7-8--8-8-7-|
A|-5-5-5-4--5-5-5-7-7-7-6--6-6-5-|
E|-3-3-3----3-3-3-5-5-5----------| x4

e|----------------------------------------------------------|
B|----------------------------------------------------------|
G|----------------------------------------------------------|
D|-7-7-7-7-7-7-7-7-5-5-5-5-5-5-5-5-7-7-7-7-7-7-7-7-5--------|
A|-7-7-7-7-7-7-7-7-5-5-5-5-5-5-5-5-7-7-7-7-7-7-7-7-5--------|
E|-5-5-5-5-5-5-5-5-3-3-3-3-3-3-3-3-5-5-5-5-5-5-5-5-3--------|

e|---------------|
B|---------------|
G|-------6-6-----|
D|-5-5-5-6-6--5--|
A|-5-5-5-4-4--5--|
E|-3-3-3------3--|



| /  slide up
| \  slide down
| h  hammer-on
| p  pull-off
| ~  vibrato
| +  harmonic
| x  Mute note
===============================================================================
Tap to rate this tab
 
# A B C D E F G H I J K L M N O P Q R S T U V W X Y Z