Song name
# A B C D E F G H I J K L M N O P Q R S T U V W X Y Z

Limp Wrist - Thanks tab

-------------------------------------------------------------------------------
Thanks - Limp Wrist
Thee Official Limp Wrist Discography
-------------------------------------------------------------------------------
Tabbed by: axeslash
Email: holmzito@yahoo.com

Tuning: Standard

Guitar 1:
e|---------------------------------|
B|---------------------------------|
G|---------------------------------|
D|-11--11--11--11--11--11--11--11--|
A|-11--11--11--11--11--11--11--11--|
E|--9---9---9---9---9---9---9---9--| x2
Guitar 2
e|-------------------------------------------------|
B|-4--4--4--4--4--4--4--4--4--4--4--4--4--4--4--4--|
G|-6^-6*-6*-6*-6*-6*-6*-6*-6*-6*-6*-6*-6*-6*-6*-6*-|
D|-------------------------------------------------|
A|-------------------------------------------------|
E|-------------------------------------------------| x2

Guitars 1 & 2:
e|-----------------------------------|
B|-----------------------------------|
G|----------------------------9-9--9-|
D|-11-11--11-11-11--11-7-7--7-9-9--9-|
A|-11-11--11-11-11--11-7-7--7-7-7--7-|
E|--9--9---9--9--9---9-5-5--5--------| x4

Guitars 1 & 2:
e|-----------------------------------------------------------------------------|
B|-----------------------------------------------------------------------------|
G|-11-11--11-11-11-----------------------11-11--11-11-11--------------12-12----|
D|-11-11--11-11-11----11-11--11-11-11----11-11--11-11-11----11-11--11-12-12----|
A|--9--9---9--9--9----11-11--11-11-11-----9--9---9--9--9----11-11--11-10-10----|
E|---------------------9--9---9--9--9------------------------9--9---9----------| x2

Guitars 1 & 2:
e|-----------------------------------|
B|-----------------------------------|
G|----------------------------9-9--9-|
D|-11-11--11-11-11--11-7-7--7-9-9--9-|
A|-11-11--11-11-11--11-7-7--7-7-7--7-|
E|--9--9---9--9--9---9-5-5--5--------| x4

Guitars 1 & 2:
e|-----------------------------------------------------------------------------|
B|-----------------------------------------------------------------------------|
G|-11-11--11-11-11-----------------------11-11--11-11-11--------------12-12----|
D|-11-11--11-11-11----11-11--11-11-11----11-11--11-11-11----11-11--11-12-12----|
A|--9--9---9--9--9----11-11--11-11-11-----9--9---9--9--9----11-11--11-10-10----|
E|---------------------9--9---9--9--9------------------------9--9---9----------| x2

Guitars 1 & 2:
e|-------------------------------------------------------------------------------------------|
B|-------------------------------------------------------------------------------------------|
G|-------------------------------9----12--11--------------------------------9----12--11------|
D|-11--------11--------11--------9----12--11--11--------11--------11--------9----12--11--11--|
A|-11--------11--------11--------7----10---9--11--------11--------11--------7----10---9--11--|
E|--9---------9---------9----------------------9---------9---------9----------------------9--|


| ^  whole step note bend
| *  hold previous note bend
| /  slide up
| \  slide down
| h  hammer-on
| p  pull-off
| ~  vibrato
| +  harmonic
| x  Mute note
===============================================================================
Tap to rate this tab
# A B C D E F G H I J K L M N O P Q R S T U V W X Y Z