Song name
# A B C D E F G H I J K L M N O P Q R S T U V W X Y Z

Limp Wrist - Odd On Pop tab

-------------------------------------------------------------------------------
OD'd On Pop - Limp Wrist
Thee Official Limp Wrist Discography
-------------------------------------------------------------------------------
Tabbed by: axeslash
Email: holmzito@yahoo.com

Tuning: Standard

e|-----------------|  e|---------------------|
B|-----------------|  B|---------------------|
G|-4-----7-7--8-7--|  G|-4-4-------7-7--8-7--|
D|-4--5--7-7--8-7--|  D|-4-4--5-5--7-7--8-7--|
A|-2--5--5-5--6-5--|  A|-2-2--5-5--5-5--6-5--|
E|----3------------|  E|------3-3------------| x4

e|------------------------------------------------|
B|------------------------------------------------|
G|-7--------8--8--5-5-5-5-5-5-5-5-5-5-5-5-5-5-5-5-|
D|-7--------8--8--5-5-5-5-5-5-5-5-5-5-5-5-5-5-5-5-|
A|-5--------6--6--3-3-3-3-3-3-3-3-3-3-3-3-3-3-3-3-|
E|------------------------------------------------| x2

e|---------------------|
B|---------------------|
G|-4-4-------7-7--8-7--|
D|-4-4--5-5--7-7--8-7--|
A|-2-2--5-5--5-5--6-5--|
E|------3-3------------| x4

e|------------------------------------------------|
B|------------------------------------------------|
G|-7--------8--8--5-5-5-5-5-5-5-5-5-5-5-5-5-5-5-5-|
D|-7--------8--8--5-5-5-5-5-5-5-5-5-5-5-5-5-5-5-5-|
A|-5--------6--6--3-3-3-3-3-3-3-3-3-3-3-3-3-3-3-3-|
E|------------------------------------------------| x2

e|------------------------------------------------|
B|------------------------------------------------|
G|-7----7--7--7--7--7--7--7--7--7--7--7--7--7--7--|
D|-7----7--7--7--7--7--7--7--7--7--7--7--7--7--7--|
A|-5----5--5--5--5--5--5--5--5--5--5--5--5--5--5--|
E|------------------------------------------------| x2
       [X--X--X--X--X--X--X--X--X--X--X--X--X--X]

e|----------------------------------------------------------|
B|----------------------------------------------------------|
G|-4--------------------------------------------------------|
D|-4----5----7----7--7--7--7--7--7--7--7--7--7--7--7--7--7--|
A|-2----5----7----7--7--7--7--7--7--7--7--7--7--7--7--7--7--|
E|------3----5----5--5--5--5--5--5--5--5--5--5--5--5--5--5--|
            [X--X--X--X--X--X--X--X--X--X--X--X--X--X]

e|------------------------------------------------|
B|------------------------------------------------|
G|------------------------------------------------|
D|-7----7--7--7--7--7--7--7--7--7--7--7--7--7--7--|
A|-7----7--7--7--7--7--7--7--7--7--7--7--7--7--7--|
E|-5----5--5--5--5--5--5--5--5--5--5--5--5--5--5--|
       [X--X--X--X--X--X--X--X--X--X--X--X--X--X]

e|----------------------------------------------------------|
B|----------------------------------------------------------|
G|-4--------------------------------------------------------|
D|-4----5----7----7--7--7--7--7--7--7--7--7--7--7--7--7--7--|
A|-2----5----7----7--7--7--7--7--7--7--7--7--7--7--7--7--7--|
E|------3----5----5--5--5--5--5--5--5--5--5--5--5--5--5--5--|
            [X--X--X--X--X--X--X--X--X--X--X--X--X--X]

e|------------------------------------------------|
B|------------------------------------------------|
G|------------------------------------------------|
D|-7----7--7--7--7--7--7--7--7--7--7--7--7--7--7--|
A|-7----7--7--7--7--7--7--7--7--7--7--7--7--7--7--|
E|-5----5--5--5--5--5--5--5--5--5--5--5--5--5--5--|
       [X--X--X--X--X--X--X--X--X--X--X--X--X--X]

e|--------------------------------------------|
B|--------------------------------------------|
G|-4------------------------------------------|
D|-4----5----7--------------------------------|
A|-2----5----7--------------------------------|
E|------3----5--------------------------------|


| /  slide up
| \  slide down
| h  hammer-on
| p  pull-off
| ~  vibrato
| +  harmonic
| x  Mute note
===============================================================================
Tap to rate this tab
# A B C D E F G H I J K L M N O P Q R S T U V W X Y Z