Song name
# A B C D E F G H I J K L M N O P Q R S T U V W X Y Z

Limp Wrist - You Aint That Fierce tab

-------------------------------------------------------------------------------
You Ain't That Fierce - Limp Wrist
Thee Official Limp Wrist Discography
-------------------------------------------------------------------------------
Tabbed by: axeslash
Email: holmzito@yahoo.com

Tuning: Both guitars Standard (EADGBe)

Guitars 1 & 2:
e|-----------------------------------------------------|
B|-----------------------------------------------------|
G|----7--10\-------7--10\-------7--10--7-----7--10--7--|
D|-9--7--10\----9--7--10\----9--7--10--7--9--7--10--7--|
A|-9--5---8\----9--5---8\----9--5---8--5--9--5---8--5--|
E|-7------------7------------7------------7------------|

Guitar 1:
e|-----------------------------------------------------|
B|-----------------------------------------------------|
G|-----------------7--10--7------------------7--10--7--|
D|-9-9-9-9-9-9-9-9-7--10--7--9-9-9-9-9-9-9-9-7--10--7--|
A|-9-9-9-9-9-9-9-9-5---8--5--9-9-9-9-9-9-9-9-5---8--5--|
E|-7-7-7-7-7-7-7-7-----------7-7-7-7-7-7-7-7-----------|

Guitars 1 & 2:
e|-----------------------------------------------------|
B|-----------------------------------------------------|
G|-----------------7--10--7------------------7--10--7--|
D|-9-9-9-9-9-9-9-9-7--10--7--9-9-9-9-9-9-9-9-7--10--7--|
A|-9-9-9-9-9-9-9-9-5---8--5--9-9-9-9-9-9-9-9-5---8--5--|
E|-7-7-7-7-7-7-7-7-----------7-7-7-7-7-7-7-7-----------|

Guitars 1 & 2:
e|--------------------------------------------------------------|
B|--------------------------------------------------------------|
G|-----------------7--10--7------------------7--10--7-----------|
D|-9-9-9-9-9-9-9-9-7--10--7--9-9-9-9-9-9-9-9-7--10--7--9--------|
A|-9-9-9-9-9-9-9-9-5---8--5--9-9-9-9-9-9-9-9-5---8--5--9--------|
E|-7-7-7-7-7-7-7-7-----------7-7-7-7-7-7-7-7-----------7--------|

Guitars 1 & 2:
e|-----------------------------------------------------|
B|-----------------------------------------------------|
G|-----------------7--10--7------------------7--10--7--|
D|-9-9-9-9-9-9-9-9-7--10--7--9-9-9-9-9-9-9-9-7--10--7--|
A|-9-9-9-9-9-9-9-9-5---8--5--9-9-9-9-9-9-9-9-5---8--5--|
E|-7-7-7-7-7-7-7-7-----------7-7-7-7-7-7-7-7-----------| x2

Tempo Slows down right here

Guitar 1:
e|---------------------------------------------------------|
B|---------------------------------------------------------|
G|-------10--9--7--7-7-7-7-7-7-------10--9--7--7-7-7-------|
D|-9-9-9-10--9--7--7-7-7-7-7-7-9-9-9-10--9--7--7-7-7-5--7--|
A|-9-9-9--8--7--5--5-5-5-5-5-5-9-9-9--8--7--5--5-5-5-5--7--|
E|-7-7-7-----------------------7-7-7-----------------3--5--|
Guitar 2:
e|---------------------------------------------------------|
B|---------------------------------------------------------|
G|---------------------------------------------------------|
D|-9-9-9-----------------------9-9-9-----------------------|
A|-9-9-9-----------------------9-9-9-----------------------|
E|-7-7-7-----------------------7-7-7-----------------------|

Guitars 1 & 2:
e|---------------------------------------------------------|
B|---------------------------------------------------------|
G|-------10--9--7--7-7-7-7-7-7-------10--9--7--7-7-7-------|
D|-9-9-9-10--9--7--7-7-7-7-7-7-9-9-9-10--9--7--7-7-7-5--7--|
A|-9-9-9--8--7--5--5-5-5-5-5-5-9-9-9--8--7--5--5-5-5-5--7--|
E|-7-7-7-----------------------7-7-7-----------------3--5--|

Guitars 1 & 2:
e|------------------------------------------------------------------|
B|------------------------------------------------------------------|
G|-------10--9--7--7-7-7-7-7-7-------10--9--7--7-7-7----------------|
D|-9-9-9-10--9--7--7-7-7-7-7-7-9-9-9-10--9--7--7-7-7-5--7--9--------|
A|-9-9-9--8--7--5--5-5-5-5-5-5-9-9-9--8--7--5--5-5-5-5--7--9--------|
E|-7-7-7-----------------------7-7-7-----------------3--5--7--------|


| /  slide up
| \  slide down
| h  hammer-on
| p  pull-off
| ~  vibrato
| +  harmonic
| x  Mute note
===============================================================================
Tap to rate this tab
# A B C D E F G H I J K L M N O P Q R S T U V W X Y Z