Song name
# A B C D E F G H I J K L M N O P Q R S T U V W X Y Z

Limp Wrist - Back In The Days tab

-------------------------------------------------------------------------------
Back In The Days - Limp Wrist
Thee Official Limp Wrist Discography
-------------------------------------------------------------------------------
Tabbed by: axeslash
Email: holmzito@yahoo.com

Tuning: Standard

e|--------------------------------------------------------------|
B|--------------------------------------------------------------|
G|-7-7----7-7----5-------8--------7-7----7-7----5-------8-------|
D|-7-7----7-7----5-5--5--8-7--7---7-7----7-7----5-5--5--8-7--7--|
A|-5-5----5-5----3-5--5--6-7--7---5-5----5-5----3-5--5--6-7--7--|
E|-----------------3--3----5--5-------------------3--3----5--5--|

e|--------------------------------------------------------------|
B|--------------------------------------------------------------|
G|-7-7-7-7-5------8-8-8-8---6-----7-7-7-7-5------8-8-8-8---6----|
D|-7-7-7-7-5-5----8-8-8-8-7-6-----7-7-7-7-5-5----8-8-8-8-7-6----|
A|-5-5-5-5-3-5----6-6-6-6-7-4-----5-5-5-5-3-5----6-6-6-6-7-4----|
E|-----------3------------5-----------------3------------5------|

e|--------------------------------------------------------------|
B|--------------------------------------------------------------|
G|-7-7----7-7----5-------8--------7-7----7-7----5-------8-------|
D|-7-7----7-7----5-5--5--8-7--7---7-7----7-7----5-5--5--8-7--7--|
A|-5-5----5-5----3-5--5--6-7--7---5-5----5-5----3-5--5--6-7--7--|
E|-----------------3--3----5--5-------------------3--3----5--5--|

e|------------------------------------------------------------------------------------|
B|------------------------------------------------------------------------------------|
G|-11-11-11-11-11-11-11-11-11-11-11-11-11-11-11-11-11-11-11-11-11-11-11-11-11\--------|
D|-11-11-11-11-11-11-11-11-11-11-11-11-11-11-11-11-11-11-11-11-11-11-11-11-11\--------|
A|--9--9--9--9--9--9--9--9--9--9--9--9--9--9--9--9--9--9--9--9--9--9--9--9--9\--------|
E|------------------------------------------------------------------------------------|

e|------------------------------------------------------------------------------------|
B|------------------------------------------------------------------------------------|
G|-7-7----7-7----5-------8--------7-7----7-7----5-------8-------7-7--------7-7--------|
D|-7-7----7-7----5-5--5--8-7--7---7-7----7-7----5-5--5--8-7--7--7-7--------7-7--------|
A|-5-5----5-5----3-5--5--6-7--7---5-5----5-5----3-5--5--6-7--7--5-5--------5-5--------|
E|-----------------3--3----5--5-------------------3--3----5--5------------------------|


| /  slide up
| \  slide down
| h  hammer-on
| p  pull-off
| ~  vibrato
| +  harmonic
| x  Mute note
===============================================================================
Tap to rate this tab
# A B C D E F G H I J K L M N O P Q R S T U V W X Y Z