Song name
# A B C D E F G H I J K L M N O P Q R S T U V W X Y Z

Limp Wrist - Limp Wrist Vs Dr Laura tab

-------------------------------------------------------------------------------
Limp Wrist vs. Dr. Laura - Limp Wrist
Thee Official Limp Wrist Discography
-------------------------------------------------------------------------------
Tabbed by: axeslash
Email: holmzito@yahoo.com

Tuning: Both guitars standard

Guitars 1 & 2:
e|-------------------------------------------------|
B|-------------------------------------------------|
G|-3--3--3-----------6--6--6--6--6--6--6--6--6--6--|
D|-3--3--3--3--3--3--6--6--6--6--6--6--6--6--6--6--|
A|-1--1--1--3--3--3--4--4--4--4--4--4--4--4--4--4--|
E|----------1--1--1--------------------------------| x4

Guitars 1 & 2:
e|-------------------------------------------------|
B|-------------------------------------------------|
G|-3--3--3-----------6--6--6-----------------------|
D|-3--3--3--3--3--3--6--6--6--6--6--6--6--6--6--6--|
A|-1--1--1--3--3--3--4--4--4--6--6--6--6--6--6--6--|
E|----------1--1--1-----------4--4--4--4--4--4--4--| x4

Guitar 1:                         Guitars 1 & 2:
e|--------------------------|     e|--------------------------|
B|--------------------------|     B|--------------------------|
G|-3--3--3--3--6------------|     G|-3--3--3--3--6------------|
D|-3--3--3--3--6--5-5--5-5--|     D|-3--3--3--3--6--5-5--5-5--|
A|-1--1--1--1--4--5-5--5-5--|     A|-1--1--1--1--4--5-5--5-5--|
E|----------------3-3--3-3--| x2  E|----------------3-3--3-3--| x4

Guitars 1 & 2:
e|-------------------------------------------------------------------|
B|-------------------------------------------------------------------|
G|------------6----6--6--6-3-------------------6----6--6--6-3--------|
D|-5--5--5--5-6----6--6--6-3--------5--5--5--5-6----6--6--6-3--------|
A|-5--5--5--5-4----4--4--4-1--------5--5--5--5-4----4--4--4-1--------|
E|-3--3--3--3-----------------------3--3--3--3-----------------------|

Guitars 1 & 2:
e|--------------------------|
B|--------------------------|
G|-3--3--3--3--6------------|
D|-3--3--3--3--6--5-5--5-5--|
A|-1--1--1--1--4--5-5--5-5--|
E|----------------3-3--3-3--| x4

Guitars 1 & 2:
e|------------------------------------------------------------------------|
B|------------------------------------------------------------------------|
G|------------6----6--6--6-3-------------------6----6--6--6-3--------3----|
D|-5--5--5--5-6----6--6--6-3--------5--5--5--5-6----6--6--6-3--------3----|
A|-5--5--5--5-4----4--4--4-1--------5--5--5--5-4----4--4--4-1--------1----|
E|-3--3--3--3-----------------------3--3--3--3----------------------------|




| /  slide up
| \  slide down
| h  hammer-on
| p  pull-off
| ~  vibrato
| +  harmonic
| x  Mute note
===============================================================================
Tap to rate this tab
# A B C D E F G H I J K L M N O P Q R S T U V W X Y Z