Song name
# A B C D E F G H I J K L M N O P Q R S T U V W X Y Z

Limp Wrist - I Love Hardcore Boys tab

LIMP WRIST
I LOVE HARDCORE BOYS   0:55
ALBUM: The Limp Wrist Discography
                                                  >>>Tabbed By: markmabey   
                                                   m_mabey008@hotmail.com
=========================================================================

TUNING: Standard

 
 intro
|----------------------------|
|----------------------------|
|---4-4-----4-4--------------|x1 
|---4-4-----4-4-----slide\---|
|---2-2-----2-2--------------|
|----------------------------|

 verse
|------------------------------------------------------------------------|
|------------------------------------------------------------------------|
|---4-4-4-4-4-4-4-4-4-4-4-4-4-4-4-4-------------------7-7-7-7------------|x2
|---4-4-4-4-4-4-4-4-4-4-4-4-4-4-4-4--3-3-3-3-3-3-3-3--7-7-7-7--6-6-6-6---|
|---2-2-2-2-2-2-2-2-2-2-2-2-2-2-2-2--3-3-3-3-3-3-3-3--5-5-5-5--6-6-6-6---|
|------------------------------------1-1-1-1-1-1-1-1-----------4-4-4-4---|

 chorus
|---------------------------------------|
|---------------------------------------|
|---4-4-x-x-x-x--4-4-x-x-x-x--4-4-4-4---|x1
|---4-4-x-x-x-x--4-4-x-x-x-x--4-4-4-4---|
|---2-2-x-x-x-x--2-2-x-x-x-x--2-2-2-2---|
|---------------------------------------|

 verse
|------------------------------------------------------------------------|
|------------------------------------------------------------------------|
|---4-4-4-4-4-4-4-4-4-4-4-4-4-4-4-4-------------------7-7-7-7------------|x2
|---4-4-4-4-4-4-4-4-4-4-4-4-4-4-4-4--3-3-3-3-3-3-3-3--7-7-7-7--6-6-6-6---|
|---2-2-2-2-2-2-2-2-2-2-2-2-2-2-2-2--3-3-3-3-3-3-3-3--5-5-5-5--6-6-6-6---|
|------------------------------------1-1-1-1-1-1-1-1-----------4-4-4-4---|

 chorus
|---------------------------------------|
|---------------------------------------|
|---4-4-x-x-x-x--4-4-x-x-x-x--4-4-4-4---|x1
|---4-4-x-x-x-x--4-4-x-x-x-x--4-4-4-4---|
|---2-2-x-x-x-x--2-2-x-x-x-x--2-2-2-2---|
|---------------------------------------|

 verse/prebridge
|---------------------------------------------------------|
|---------------------------------------------------------|
|---4--4--4--4--4--4--4--4-------------------7--7--7--7---|x4
|---4--4--4--4--4--4--4--4---4---3--3--3--3--7--7--7--7---|
|---2--2--2--2--2--2--2--2---4---3--3--3--3--5--5--5--5---|
|----------------------------2---1--1--1--1---------------|

 bridge
|----------------------------|
|----------------------------|
|---4-4-----4-4--------------|x1 
|---4-4-----4-4-----slide\---|
|---2-2-----2-2--------------|
|----------------------------|

 verse
|------------------------------------------------------------------------|
|------------------------------------------------------------------------|
|---4-4-4-4-4-4-4-4-4-4-4-4-4-4-4-4-------------------7-7-7-7------------|x2
|---4-4-4-4-4-4-4-4-4-4-4-4-4-4-4-4--3-3-3-3-3-3-3-3--7-7-7-7--6-6-6-6---|
|---2-2-2-2-2-2-2-2-2-2-2-2-2-2-2-2--3-3-3-3-3-3-3-3--5-5-5-5--6-6-6-6---|
|------------------------------------1-1-1-1-1-1-1-1-----------4-4-4-4---|

 chorus
|---------------------------------------|
|---------------------------------------|
|---4-4-x-x-x-x--4-4-x-x-x-x--4-4-4-4---|x1
|---4-4-x-x-x-x--4-4-x-x-x-x--4-4-4-4---|
|---2-2-x-x-x-x--2-2-x-x-x-x--2-2-2-2---|
|---------------------------------------|

Tap to rate this tab
# A B C D E F G H I J K L M N O P Q R S T U V W X Y Z