Song name
# A B C D E F G H I J K L M N O P Q R S T U V W X Y Z

Linchpin - Artists Raptors tab

All music copyright LINCHPIN 06
http://www.linchpinrock.com

()= palm muted
 >= hammer off

INTRO
D#----------------------------------------------------------------------------|
A#----------------------------------------------------------------------------|
F#----------10--12-10---------12--12-10---------------------------------------|
C#---12--12-10--12-10--10--10-12--12-10--8--8-10--12--10--(8-8)-10--12>10-----|
G#---12--12------------10--10------------8--8-8---8---8---(8-8)-8---8--8------|
C#---12--12------------10--10------------8--8-8---8---8---(8-8)-8---8--8------|

VERSE
D#------0--0-------0--0-------0--0-------0--0---------------------------------|
A#------6--6-------6--6-------6--6-------5--5---------------------------------|
F#------7--7-------7--7-------7--7-------6--6---------------------------------|
C#-(7-7)7--7--(7-7)7--7--(8-8)8--8--(7-7)7--7---------------------------------|
G#-(5-5)5--5--(5-5)5--5--(8-8)8--8--(7-7)7--7---------------------------------|
C#-(0-0)0--0--(0-0)0--0--(8-8)8--8--(7-7)7--7---------------------------------|
Tap to rate this tab
 
# A B C D E F G H I J K L M N O P Q R S T U V W X Y Z