Song name
# A B C D E F G H I J K L M N O P Q R S T U V W X Y Z

Lincoln Brewster - Let The Praises Ring tab

Lincoln Brewster
Let the Praises Ring



Intro/Turn-around: (Pick-up notes in parenthasees)
          E     Esus        E       Esus
e|-------|-----|-----------|-------|-------------|
B|-------|-----|-----------|---0---|-------------|
G|-------|-1---|-----------|-1-----|-2-1---------|
D|-(2-4)-|---1-|-2-4-2-2-4-|-----4-|-----2-(2-4)-|
A|-------|-----|-----------|-------|-------------|
E|-------|-----|-----------|-------|-------------|

Solo:

1st part:
e|0---0---------------------------------------------------------------------|
B|--4-----0---0---2-0-2-----------0---0-------------------------------------|
G|----------2-------------2-1-2-----2-----1---1---2-1-2----------1---1---1--|
D|------2-------2-------2-------2-------2---4---2------2-4-2-4-2---2---4---2|
A|--------------------------------------------------------------------------|
E|--------------------------------------------------------------------------|

2nd part:
                            (Slower notes)
e|-------------------------|---------------|
B|---------0---0---2-0-2---|-4-0-2---0---0-|
G|-2-1-2-----2-------------|-------2---1---|
D|-------2-------2-------2-|---------------|
A|-------------------------|---------------|
E|-------------------------|---------------|

(Repeat 1st part)

3rd part:
(Faster notes)
e|-------------------------|-4-5-4-2-0-4-2-0-----0---0-|
B|---------0-------2-------|-----------------2-0---4---|
G|-2-1-------1-------1-----|---------------------------|
D|-----4-2-----4-2-----4-2-|---------------------------|
A|-------------------------|---------------------------|
E|-------------------------|---------------------------|
Tap to rate this tab
 
# A B C D E F G H I J K L M N O P Q R S T U V W X Y Z