Song name
# A B C D E F G H I J K L M N O P Q R S T U V W X Y Z

Lincoln Brewster - Son Of God Live tab

SON OF GOD (LIVE) - Lincoln Brewster
-------------------------------------------------------------------------------
Tabbed by:whammy32
Email:artesian@integrity.com

Tuning:Standard

This is the basic solo used throughout the song. It is a little tricky, and I still have
with it now, but after a bit of practice, it gets easier, so don't worry. I'll start
on the bridge soon. I'm a new member, so send me a message and tell me what you think of 
one. Enjoy the tab...

e|---------------------------------------------------------------------------|
B|---------------------------------------------------------------------------|
G|--2-0-2-0-----2-0-2-0-----4-0-4-0-----4-0-4-0-----6-0-6-0------------------|
D|----------4-0---------4-0---------4-0---------4-0---------4-0--------------|
A|---------------------------------------------------------------------------|
E|---------------------------------------------------------------------------|

e|---------------------------------------------------------------------------|
B|---------------------------------------------------------------------------|
G|--6-0-6-0-----7-0-7-0-----7p-----------------------------------------------|
D|----------4-0---------4-0--------------------------------------------------|
A|---------------------------------------------------------------------------|
E|---------------------------------------------------------------------------|

| /  slide up
| \  slide down
| h  hammer-on
| p  pull-off
| ~  vibrato
| +  harmonic
| x  Mute note
===============================================================================
Tap to rate this tab
# A B C D E F G H I J K L M N O P Q R S T U V W X Y Z