Song name
# A B C D E F G H I J K L M N O P Q R S T U V W X Y Z

Lincoln Brewster - God You Reign tab

-------------------------------------------------------------------------------
     GOD YOU REIGN - Lincoln Brewster
-------------------------------------------------------------------------------

Tabbed by: Andrew Sondgeroth
Email: asondgeroth@gmail.com

This is the first time I've ever tried to tab anything out. But, I really
needed this solo for church...so I took a stab at it. I'm sure I have some things wrong
it should get you most of the way there.

I used Transcribe! and Guitar Pro 5 to figure out most of the core notes. I played by
and by ear (as best I could) for the rest of it.

Since I don't know how to read music, I was having a really hard time getting Guitar Pro
do what I wanted it to do. So, I figured I'd simply post the text file. That way, at
those of you out there that want the tab for this really cool solo will have it. If 
out there is skilled enough, you can enter the text into PowerTab or Guitar Pro and post
up here.

The sections below are certainly not representative of actual measures. I simply tried
keep particular riffs together in a printable format.

I really enjoy Lincoln Brewster's music. I think he is very necessary in the realm of
music. There are many guitarists like myself that love music like Metallica, Dream
SRV, etc. but yearn to incorporate such styles into worship.

(Thank you, Lincoln!)

Enjoy the tab, all!


Song: God You Reign
Artist: Lincoln Brewster
Album: Today Is The Day


(intro)
e||-2--3--2--3--5-(5)p3----------------------------------------------|
B||-3--3--3--3-----------5h7-(7)---5h7-(7)-----5h7-(7)----5h7-(7)----|
G||-2--2--2--2------------------7---------7-----------7----------7---|
D||-----------------------------------------7----------------------7-|
A||------------------------------------------------------------------|
E||------------------------------------------------------------------|


(solo at 4:17)
e||--21b-21-19~----19h21-17----17h1914----19b-17---------------------|
B||----------------------------------------------19------------------|
G||------------------------------------------------------------------|
D||------------------------------------------------------------------|
A||------------------------------------------------------------------|
E||------------------------------------------------------------------|


e||---------------------------14b14b-12-12b-----12-14b-15b-14b-12----|
B||--17-17h22-19--17h22-19-------------------15-------------------15\|
G||------------------------------------------------------------------|
D||------------------------------------------------------------------|
A||------------------------------------------------------------------|
E||------------------------------------------------------------------|


e||-------------------------------------12b--------------------------|
B||-15~~~-15~~~-15~~~-15~~~-15~~~-15~~~-----15~~~-15~~~-15~~~--------|
G||------------------------------------------------------------------|
D||------------------------------------------------------------------|
A||------------------------------------------------------------------|
E||------------------------------------------------------------------|


e||------------------------------|
B||--15p12-----------------------|
G||--------14p12-----------------|
D||--------------14b-12----12~---|
A||---------------------14-------|
E||------------------------------|


e||--17-17-17p12-17p12---------12-|  e||-17p12---------12--|
B||-------------------15-14-15----|  B||-------15-14-15----|
G||-------------------------------|  G||-------------------| (repeat 8x)
D||-------------------------------|  D||-------------------|
A||-------------------------------|  A||-------------------|
E||-------------------------------|  E||-------------------|


e||--19b~~-17h19-21~--19-21-------14b-15-14-12----|
B||-------------------------19--------------------|
G||-----------------------------------------------|
D||-----------------------------------------------|
A||-----------------------------------------------|
E||-----------------------------------------------|


e||--15p14p12--15p14p12--15p14p12-----|
B||-----------------------------------|
G||-----------------------------------|
D||-----------------------------------|
A||-----------------------------------|
E||-----------------------------------|


e||------------------------------------|
B||--15p14p12--------------------------|
G||-----------14p12--------------------|
D||--------------------12~~~-----------|
A||-----------------14-----------------|
E||--------------------------0/(0)\----|


| /  slide up
| \  slide down
| b  bend
| h  hammer-on
| p  pull-off
| ~  vibrato
| +  harmonic
| x  Mute note
===============================================================================
Tap to rate this tab
# A B C D E F G H I J K L M N O P Q R S T U V W X Y Z