Song name
# A B C D E F G H I J K L M N O P Q R S T U V W X Y Z

Lincoln Brewster - God You Reign tab

Intro:
e|------------------------------------------------------------------|
b|-7-------8-------7-------8---10-8-5h7----5h7---------5h7----5h7---|
g|-7-------7-------7-------7------------7------7-----------7------7-|
d|------------------------------------------------------------------|
a|------------------------------------------------------------------|
e|------------------------------------------------------------------|

Verse: play this through all the verses
e|------------------------------------------------------------------|
b|-7-------8-------7-------8-------7-------8-------7-------8--------|
g|-7-------7-------7-------7-------7-------7-------7-------7--------|
d|------------------------------------------------------------------|
a|------------------------------------------------------------------|
e|------------------------------------------------------------------|

Chorus: All choruses
e|-------------------------------------------------------------------|
b|-8--8--8--8--8----(x2)---7--7--7--7--7----(x2)--9--9--9--9--9------|(x1)
g|---7--7--7--7--7~-(x2)-----7--7--7--7--7~-(x2)----7--7--7--7--7~---|(x1)
d|-------------------------------------------------------------------|
a|-------------------------------------------------------------------|
e|-------------------------------------------------------------------|

e|----------------------------------------------|
b|-8--8--8--8--8----(1x)------------------------|
g|---7--7--7--7--7~-(1x)------------------------|
d|----------------------------------------------|
a|----------------------------------------------|
e|----------------------------------------------|

Keep repeating for all verses and choruses.
I don't have time to write the solo out write
now but I will soon. Just tell me if anything's
wrong, but I'm pretty sure about this one.
Thanks
Tap to rate this tab
 
# A B C D E F G H I J K L M N O P Q R S T U V W X Y Z