Song name
# A B C D E F G H I J K L M N O P Q R S T U V W X Y Z

Lincoln Brewster - Today Is The Day tab

----------------------------------------------------------------------------
			 TODAY IS THE DAY - Lincoln Brewster
----------------------------------------------------------------------------
Tabbed by: NICK
Email: nickman02@charter.net
Tuning: Standard (e B G D A E)

e|-------------------------------------------------------------------------|
B|-------------------------------------------------------------------------|
G|------------------------------------9-11--7-9--6-7-----------------------|
D|-4b-4-2~--7-5-4~--9-7-5~--12-11-9~-----------------9~--------------------|
A|-------------------------------------------------------------------------|
E|-------------------------------------------------------------------------|

e|-12-14----12-------------------------------------------------------------|
B|-------15----14-15--12--14-----------------------------------------------|
G|---------------------------14~-------------------------------------------|
D|-------------------------------------------------------------------------|
A|-------------------------------------------------------------------------|
E|-------------------------------------------------------------------------|

yes this next part is all picked. watched an instructional on youtube of lincoln 
playing it and he picks it all.

e|12-17-12----------12-17-12----------12-17-12-17-12----------12-17-12-----|
B|--------15-14-15----------15-14-15----------------15-14-15----------15-14|
G|-------------------------------------------------------------------------|
D|-------------------------------------------------------------------------|
A|-------------------------------------------------------------------------|
E|-------------------------------------------------------------------------|

e|-------------------------------------------------------------------------|
B|-15\---------------------------------------------------------------------|
G|-------------------------------------------------------------------------|
D|-----12-11-12-11---------------------------------------------------------|
A|-----------------14~-----------------------------------------------------|
E|-------------------------------------------------------------------------|

e|-------------------------------------------------------------------------|
B|-------------------------------------------------------------------------|
G|----------19----19----18br-16~-------------------------------------------|
D|----17-------------------------------------------------------------------|
A|-------17----17----17----------------------------------------------------|
E|-15----------------------------------------------------------------------|

e|--------------------------------------------17br~~~----------------------|
B|-14h15p14p12----------12----14----15-----17------------------------------|
G|----------------14-------------------------------------------------------|
D|-------------12----12----12---(12)---(12)--------------------------------|
A|-------------------------------------------------------------------------|
E|-------------------------------------------------------------------------|

e|-14br--------------------------------------------------------------------|
B|------17-17br-15----17-15---17b-17b~~------------------------------------|
G|-----------------16------------------------------------------------------|
D|-------------------------------------------------------------------------|
A|-------------------------------------------------------------------------|
E|-------------------------------------------------------------------------|


| /  slide up
| \  slide down
| h  hammer-on
| p  pull-off
| ~  vibrato
| +  harmonic
| x  Mute note
| b  bend
| r  release bend
|(12) ghost note
============================================================================
Tap to rate this tab
# A B C D E F G H I J K L M N O P Q R S T U V W X Y Z