Song name
# A B C D E F G H I J K L M N O P Q R S T U V W X Y Z

Lincoln Brewster - Son Of God tab

-------------------------------------------------------------------------------
			     Son of God - Lincoln Brewster
-------------------------------------------------------------------------------
Tabbed by:Whiteboy_az
Email:whiteboy15420@yahoo.com

Tuning:standard

e|---------------------------------------------------------------------------|
B|---------------------------------------------------------------------------|
G|-2-0-2-0----2-0-2-0-----4-0-4-0-----4-0-4-0-----6-0-6-0-----6-0-6-0--------|
D|--------4-0---------4-0---------4-0---------4-0---------4-0---------4-0----|
A|---------------------------------------------------------------------------|
E|---------------------------------------------------------------------------|

e|-------------------------|
B|-------------------------|
G|-7-0-7-0-----7-0-7-0-----|
D|---------4-0---------4-0-|
A|-------------------------|
E|-------------------------|

Pretty simple part, can be picked or pulled off, your choice.
Tap to rate this tab
 
# A B C D E F G H I J K L M N O P Q R S T U V W X Y Z