Song name
# A B C D E F G H I J K L M N O P Q R S T U V W X Y Z

Lincoln Brewster - Salvation Is Here tab

                        Salvation is here
                       By Lincoln Brewster
                    Tabbed by Jonathan Farrell

This is my first tab. It maybe a lil shabby in the solo, but
if you follow this guidlines and listen to recorded version
you'll figure it out !!!!


ok im gonna norrow this down in sections ie: intro, verse, interlude, chorus, solo and outro...

intro]   only play the slide part once

e]---------------------------------------------|
B]----------12---11----------------------------|
G]-4/11~----11---11---11-----------------------| x2
D]-4/11~----9----9----11-----------------------|
A]-2/9-~--------------9------------------------|
E]---------------------------------------------|


verses]  play with slight repeating delay

            repeat 3 times
e]---------------------------------------------|
B]---------12---------12---------11---------11-|
G]--11--11----11--11------11--11-----11--11----|
D]---------------------------------------------|
A]---------------------------------------------|
E]---------------------------------------------|

   lick after first verse and only played once

e]--14-12----------------------------------------|
B]--------14-12----------------------------------|
G]--------------13-15----------------------------|
D]--------------------14-12----------------------|
A]--------------------------14-12-14-12----------|
E]-----------------------------------------------|

( for the chords you hear before the lead lick...B,E,G#B)

[chorus's] play with crunchy Distortion

e----------------------------------------------|
B----------------------------------------------|
G--4~--4~-------------4-/6---4/6-----9--9--9---|
D--4~--2~--4~--6~-----4-/6---4/6-----9--9--9---|
A--2~--2~--4~--6~-----2-/4---2/4-----7--7--7---|
E----------2~--4~------------------------------|

then the quick lead riff after the first chorus
(im gonna give you the notes he's playing but you
 gotta play them quick and fast and
 you can double notes if you like )

             Lick #1
e---17-16-----------------------------------------------|
B---------17~----------17-------16--------14--------13--|
G----------------14-14----14-14-----14-14-----14-14-----|
D-------------------------------------------------------|
A-------------------------------------------------------|
E-------------------------------------------------------|

             Lick #2
e]--17-16------------------------------------------------------|
B]--------17~-------17-15--------------------------------------|
G]------------------------16-14--------------------------------|
D]------------------------------16-14--14-12-------------------|
A]-------------------------------------------14-12-14----------|
E]-------------------------------------------------------------|


             SOLO
(this is gonna be spit into 5 sections)

            "Section 1"
e]--------------------------------------------|
B]--------------------------------------------|
G]------9-11----------------------------------|
D]-9-11------9-11-11~--11-9-7-----------------|
A]----------------------------9-7-9-----------|
E]----------------------------------9-7-9~----|

            "Section 2"
e]------------------------------------------------------------------|
B]-----14b16-14-12\-------------------------------------------------|
G]-13~---------------------9-11------9-11-------9-11----------------|
D]--------------------9-11------9-11-------9-11-------11-9----------|
A]---------------------------------------------------------11-9-11~-|
E]------------------------------------------------------------------|

            "Section 3"
  (your gonna need to "treb" pic most of this)
  (and you can either hammer-on or slide-up on these)
e]--------------------------------------------------------|
B]--------------------------------------------------------|
G]-13~-15~-16~-18~---16h18-18~--16h18-18~--16h18-18~------|
D]--------------------------------------------------------|
A]--------------------------------------------------------|
E]--------------------------------------------------------|

            "Section 4"

  ( this is very fast so im gonna give you the core notes but
    you can just double play them very fast) and treb pic the 18b20.
e]--------------------------------------------------------------------------|
B]-18b20-------------------------------------------------------------18b20~-|
G]-------16-18-16-18-------------------------------------16-18-16-18--------|
D]-------------------16-18-16-18-------------16-18-16-18--------------------|
A]-------------------------------16-18-16-18--------------------------------|
E]--------------------------------------------------------------------------|

            "Section 5"
e]--21b23--21---23---21--------------------|
B]-----------------------------------------|
G]-----------------------------------------|
D]-----------------------------------------|
A]-----------------------------------------|
E]-----------------------------------------|

 chorus #3
 bridge #2
 chorus #4

               then its the outro.

             Lick #1
e---17-16------------------------------------------------|
B---------17~----------17-------16--------14--------13---|
G----------------14-14----14-14-----14-14-----14-14------|
D--------------------------------------------------------|
A--------------------------------------------------------|
E--------------------------------------------------------|

             Lick #2
e]--17-16------------------------------------------------|
B]--------17~-------17-15--------------------------------|
G]------------------------16-14--------------------------|
D]------------------------------16-14--14-12-------------|
A]-------------------------------------------14-12-14-12-|
E]-------------------------------------------------------|

  then repeat those 2 licks once more and the song is over!!!


                      !!!!!HAVE FUN!!!!!!!!!!
Tap to rate this tab
# A B C D E F G H I J K L M N O P Q R S T U V W X Y Z