Lincoln Brewster - Arms Of My Savior tab

Arms of my savior
Lincoln Brewster

Intro Solo
e|-------------------------------------------------------12----------------|
B|--9----7/57---7/9--7-----------------------------------------------------|
G|---------------------9---------9-----------------------------------------|
D|---------------------------------9ó13/14-11--11----------11/13-11------13|
A|--------------------------4/6------------------- 14--------------14-14---|
E|-------------------------------------------------------------------------|

e|-------------------------------------------------------------------------|
B|-------------------------------------------------------------------------|
G|-------------------------------------------------------------------------|
D|----9/11-11---7/9--8-----------------------------------------------------|
A|----------------------9-7-7----------------------------------------------|
E|-------------------------------------------------------------------------|

Verse
E
When Iím all alone
B or Gmaj7(7 fret)
And the weight of the world
C#m7
Is more than I can bear on my own
A
When all my plans have failed
And I suffered defeat
Iím down on my knees
I canít get to my feet

Pre-chorus
A6		Emaj9
Your love breaks through
C#m7					F#11
And reminds me of the hope that I have in You
A          C#m7      B A      B
That I have in You

Chorus:
E
Thereís no other place
E/C#
That Iíd rather be
B
Than safe in the arms
A                        F#m
The arms of my Savior
Thereís no other place
Where I can be free
So I run to the arms
The arms of my Savior
Verse
E
When Iím feeling overwhelmed
B or Gmaj7(7 fret)
Like I canít take anymore
C#m7
Iíve thrown up my hands
A
All I see is the floor
Iíve looked to the north
The south, the west, and the east
But as far as I can see
I canít find any peace

Pre-chorus
A6		Emaj9
Your grace breaks through
C#m7					F#11
And reminds me of the hope that I have in You
A          C#m7      B A      B
That I have in You

e|---16-16-16---16/14-12--16---14-12-14-12-14--14-12-----------------------------|
B|--------------------------------------------------14-12------------------------|
G|-------------------------------------------------------------------------------|
D|-------------------------------------------------------------------------------|
A|-------------------------------------------------------------------------------|
E|-------------------------------------------------------------------------------|

Bridge
A6		         Emaj9
Life shouldnít be something to dread
C#m7
ĎCause I know You still know

F#11
How many hairs are in my head
A                         C#m7
And so I run to You
B A      B
And so I run to You

Chorus:
E
Thereís no other place
E/C#
That Iíd rather be
B
Than safe in the arms
A                        F#m
The arms of my Savior
Thereís no other place
Where I can be free
So I run to the arms
The arms of my Savior
Tap to rate this tab
 
# A B C D E F G H I J K L M N O P Q R S T U V W X Y Z