Lincoln Brewster - Real Life tab

I noticed that nobody ever made a tab of the solo when they tabbed "Real Life" so I 
thought since I know it pretty well I'd tab for others to see.
                                 Enjoy.

Tuning: Standard (EADGBe)

(Timing might be hard to tell in the tab. If so listen to the recording to figure it out)
e----------------------------------------------------------------------------|
B-----------------------------------------------15---------------------------|
G--4s7s9s11s7s9~---11b12r11-7~---11b12r11----------12------------------12h14-|
D-----------------------------------------9~----------12~--------------------|
A----------------------------------------------------------------------------|
E----------------------------------------------------------------------------|


e---------------------------------------------------------------------------|
B-------------------15--13-13--12-12--10p8--\15--13-13--12-12--10-10~-------|
G--12h14-16-12-9\-----------------------------------------------------------|
D---------------------------------------------------------------------------|
A---------------------------------------------------------------------------|
E---------------------------------------------------------------------------|


e
B
Tap to rate this tab
 
# A B C D E F G H I J K L M N O P Q R S T U V W X Y Z