Lincoln Brewster - Let Your Glory Shine tab

-----------------------------------------------------------------
Let Your Glory Shine Intro - Lincoln Brewster
-----------------------------------------------------------------
Tabbed by:Nathan
Email:nwentz2519@gmail.com
Tuning:Drop D
Taken from 1 on 1 with lincoln brewster. 
Should be pretty much right but if there's a small mistake then let me know. 
The rest of the song is tabbed everywhere but the intro is nowhere so that's why I did this. 

Very Fast

E|-----------10-12-12h13p1210----12p10---------------------------|
B|--10-12-13------------------13-------13-13p12p10----12h13p12p10|
G|-------------------------------------------------13------------|
D|---------------------------------------------------------------|
A|---------------------------------------------------------------|
D|---------------------------------------------------------------|

E|---------------------------------------------------------------|
B|---12p10-------------------------------------------14----------|
G|13-------13-13p12p10----10-12s13s12-10----10-12s15----15s13----|
D|---------------------12----------------12----------------------|
A|---------------------------------------------------------------|
D|---------------------------------------------------------------|

E|---------------------------------------------------------------|
B|---------------------7----7----7-------------------------------|
G|---10----10b--7-9-10---10---10---10-9-7---7---7----------------|
D|12----12--------------------------------9---9---9s5b-3---------|
A|---------------------------------------------------------------|
D|---------------------------------------------------------------|

E|---------------------------------------------------------------|
B|---------------------------------------------------3-----------|
G|--------------------------7---5---4-4s5-5-4-9--7-5-2-----------|
D|----3-5-3---3---3----------------------------------0-----------|
A|3-5-------5---5---5-3b-s9---7---5---5s7-7-5-11-9-7-0-----------|
D|---------------------------------------------------0-----------|
Tap to rate this tab
 
# A B C D E F G H I J K L M N O P Q R S T U V W X Y Z