Song name
# A B C D E F G H I J K L M N O P Q R S T U V W X Y Z

Lincoln Brewster - You Are The One tab

Key of E

Intro:
E/G#  A2  Bsus  E/G#  A2  Bsus 

Verse: 
 
   E/G#	   A2	 Bsus	      A2      F#m7
e-------------------0-----|-----0--------0--|
B-----5-------------------|--------------0--|
G----4-------4-----4------|----4-------2----|
D---2-------2-----4---(x3)|---2-------2-----| 
A----------0-----2--------|--0-------4------|
E--4----------------------|---------2-------|

           E/G#      A2        Bsus 
You're the One Who made the heavens 
           E/G#        A2         Bsus 
You're the One Who shaped the earth 
           E/G#           A2   Bsus             A2     F#m7 
You're the One Who formed my heart long before my birth 
    E/G#           A2     Bsus 
I believe You'll always lead me 
       E/G#           A2     Bsus  B 
All my days have been ordained 
         E/G#               A2    Bsus 
All Your thoughts toward me are holy, 
B             A2      F#m7 
full of love and grace 
e--------------|
B--5h7h7h7h7h7~|
G-4------------|
D--------------|
A--------------|
E--------------|
  Grace *first time*

Chorus 1

    E         F#m7       Bsus       A2     E/G#   Bsus  A2
e----------|---------------------|----------------2222-0000---|
B--9---9---|--10--10------4--4---|--3--3---9--9---2222-0000---|
G-9---9--9-|-11--11--11--4--4--4-|-2--2---9--9----4444-2222---|
D---9------|----11---------4-----|---2------9-----4444-2222---|
A----------|---------------------|----------------2222-0000---|
E----------|---------------------|----------------------------|
   (x2)

E                        B/D# 
You are the One, You are holy, 
F#m7                       Bsus 
You are the One, You are worthy 
A2                E/G#                   Bsus  A2 
You are the One, You are the One, everlasting 

                  E/G#  A2  Bsus 
Lord, You are the One, 
                  E/G#  A2  Bsus 
Jesus, You're the One 

Riff after the word 'One' 
e-4-4h5-5/7--5------4---|-4-4h5-5/7--5----------------|
B-------------5-7--5-5--|-------------5-5--4h5p4-4\2--|
G---------------------4-|-----------------------------|
D-----------------------|-----------------------------|
A-----------------------|-----------------------------|
E-----------------------|-----------------------------|

E                         B/D# 
You are the One I will worship, 
F#m7                      Bsus 
You are the One I will serve all my days 
A2                E/G#                   Bsus  A2 
You are the One, You are the One, everlasting 
                  E/G#  A2  Bsus 
Lord, You are the One, 
                  E/G#  A2  Bsus 
Jesus, You're the One 
 
 
Other: (Electric Guitar Solo)
F#m7  E  F#m7  A2 
 
 
Bridge: 
              E/G#  A2  Bsus 
You are the One, 
              E/G#  A2  Bsus 
You are the One 
(Repeat twice) 
E/G#  A2  Bsus  E/G#  A2  Bsus 

Ending: 
E                        B/D# 
You are the One, You are holy, 
F#m7                       Bsus 
You are the One, You are worthy 
A2                E/G#                   Bsus  A2 
You are the One, You are the One, everlasting 
                  E/G#  A2  Bsus 
Lord, You are the One 
                  E/G#  A2  Bsus 
Lord, You are the One 
                  E/G#  A2  Bsus 
Lord, You are the One 
                   E 
Lord, You are the One

   E/G#	   A2	 Bsus2	 
e-------------------0-----|
B-----5-------------------|
G----4-------4-----4------|
D---2-------2-----4---(x2)|
A----------0-----2--------|
E--4----------------------|
Tap to rate this tab
# A B C D E F G H I J K L M N O P Q R S T U V W X Y Z