Song name
# A B C D E F G H I J K L M N O P Q R S T U V W X Y Z

Lincoln Brewster - Let The Praises Ring tab




E||--12-11-12-0-7-5-7-0-9-7-9-0-5-4-5-0-|
B||-------------------------------------|
G||-------------------------------------|
D||-------------------------------------|
A||-------------------------------------|
E||-------------------------------------|


 
--7-5-7-0-4-2-4-0-5-4-5-0-2-0-2-0-|
----------------------------------|
----------------------------------|
----------------------------------|
----------------------------------|
----------------------------------|


  
--4-2-4-0-5-4-5-0-7-5-7-0-9-7-9-0-|
----------------------------------|
----------------------------------|
----------------------------------|
----------------------------------|
----------------------------------|


   
--12-0-7-0-9-0-5-0-7-0-4-0-5-12-11---|
-------------------------------------|
-------------------------------------|
-------------------------------------|
-------------------------------------|
-------------------------------------|


   
--12-0-7-5-7-0-9-7-9-0-5-4-5-0-7-5-|
-----------------------------------|
-----------------------------------|
-----------------------------------|
-----------------------------------|
-----------------------------------|




  
--7-0-4-2-4-0-5-4-5-0-2-0-2-0-----|
----------------------------------|
----------------------------------|
----------------------------------|
----------------------------------|
----------------------------------|


--4-2-0-5-4-0-7-5-0-9-7-0-11-9-0-12-11-0------|
----------------------------------------------|
----------------------------------------------|
----------------------------------------------|
----------------------------------------------|
----------------------------------------------|


            Slide
--14-12-0-14-----16--------------------------|
---------------------------------------------|
---------------------------------------------|
---------------------------------------------|
---------------------------------------------|
---------------------------------------------|
Tap to rate this tab
 
# A B C D E F G H I J K L M N O P Q R S T U V W X Y Z