Guitaretab - guitar tabs
Song name
# A B C D E F G H I J K L M N O P Q R S T U V W X Y Z

Lincoln Brewster - Another Hallelujah tab

Another Hallelujah   Lincoln Brewster

Intro:
E|---------------------------------------|
B|----------1-----------------1----------|
G|-------0-----0-----------2-----0-------|
D|----2-----------2-----2-----------2---|X4
A|-3-----------------0-------------------|
E|---------------------------------------|


Verse 1:
I love You Lord with all my heart
You've given me a brand new start
E|-------------------------------------|
B|----------1-----------------1--------|
G|-------0-----0-----------2-----2-----|
D|----2-----------2-----2-----------2-|X2
A|-3-----------------0-----------------|
E|-------------------------------------|


And I just want to sing this song to You
E|----------0--------------------------|
B|-------1----1--------------1---------|
G|----2----------2--------0-----2------|
D|-2-------------------2----------2---|
A|------------------0------------------|
E|-------------------------------------|


E|-------------------------------------|
B|----------1-----------------1--------|
G|-------0-----0-----------2-----2-----|
D|----2-----------2-----2-----------2-|
A|-3-----------------0-----------------|
E|-------------------------------------|




It goes like this the fourth the fifth
E|-----------------------------------------|
B|----------1-----------------1------1-----|
G|-------0-----0-----------2-------0-------|
D|----2-----------2-----2--------2--------|
A|-3---------------------------------------|
E|-----------------------------------------|


The minor fall the major lift
E|----------0-----------------0-------|
B|-------1----1------------1-----1----|
G|----2----------2------0----------0--|
D|-2-----------------2---------------|
A|------------------------------------|
E|------------------------------------|


My heart and soul are praising
E|------------------------------------|
B|----------1-------------1-----------|
G|-------0-----0----------0-----------|
D|----2-----------2-------2----------|
A|-3----------------------3-----------|
E|------------------------------------|


   Hallelujah
E|------------------------------------|
B|-----------------1------------------|
G|---0----------0-----0-----0---------|
D|-----2-----2-----------2------------|
A|--------3---------------------------|
E|------------------------------------|


Chorus:
 Hallelujah
E|----------0-----------------0-------|
B|-------1----1------------1-----1----|
G|----2----------2------0----------0--|
D|-2-----------------2---------------|
A|------------------------------------|
E|------------------------------------|


   Hallelujah
E|-------------------------------------|
B|----------1-----------------1--------|
G|-------0-----0-----------2-----0-----|
D|----2-----------2-----2-----------2-|
A|-3-----------------0-----------------|
E|-------------------------------------|


E|----------0-----------------0---------|
B|-------1----1------------1-----1------|
G|----2----------2------2----------2----|
D|-2-----------------2-----------------|
A|--------------------------------------|
E|--------------------------------------|


Hallelujah
E|----------------------------3-------|
B|----------1-------------------------|
G|-------0-----0-----------2-----0----|
D|----2-----------2-----2-----------2-|
A|-3-----------------0----------------|
E|------------------------------------|

E|-------------------------------------|
B|----------1-----------------1--------|
G|-------0-----0-----------2-----2-----|
D|----2-----------2-----2-----------2-|
A|-3-----------------0-----------------|
E|-------------------------------------|


E|-------------------------------------|
B|----------1--------------------------|
G|-------0-----0-----------------------|
D|----2-----------2-------------------|
A|-3-----------------0-----------------|
E|-------------------------------------|

I know that You're the God above
You're filling me with grace and love
E|-------------------------------------|
B|----------1-----------------1--------|
G|-------0-----0-----------2-----2-----|
D|----2-----------2-----2-----------2-|X2
A|-3-----------------0-----------------|
E|-------------------------------------|


And I just want to say thank You to You
E|----------0--------------------------|
B|-------1----1--------------1---------|
G|----2----------2--------0-----2------|
D|-2-------------------2----------2---|
A|------------------0------------------|
E|-------------------------------------|


E|-------------------------------------|
B|----------1-----------------1--------|
G|-------0-----0-----------2-----2-----|
D|----2-----------2-----2-----------2-|
A|-3-----------------0-----------------|
E|-------------------------------------|




You pulled me from the miry clay
E|---------------------------------------|
B|----------1-----------------1----1-----|
G|-------0-----0-----------2-------0-----|
D|----2-----------2-----2----------2----|
A|-3-------------------------------------|
E|---------------------------------------|



You've given me a brand new day
E|----------0-----------------0-------|
B|-------1----1------------1-----1----|
G|----2----------2------0----------0--|
D|-2-----------------2---------------|
A|------------------------------------|
E|------------------------------------|


Now all that I can say is
E|------------------------------------|
B|----------1-------------1-----------|
G|-------0-----0----------0-----------|
D|----2-----------2-------2----------|
A|-3----------------------3-----------|
E|------------------------------------|


   Hallelujah
E|------------------------------------|
B|-----------------1------------------|
G|---0----------0-----0-----0---------|
D|-----2-----2-----------2------------|
A|--------3---------------------------|
E|------------------------------------|


Chorus:
 Hallelujah
E|----------0-----------------0-------|
B|-------1----1------------1-----1----|
G|----2----------2------0----------0--|
D|-2-----------------2---------------|
A|------------------------------------|
E|------------------------------------|

 Hallelujah
E|-------------------------------------|
B|----------1-----------------1--------|
G|-------0-----0-----------2-----0-----|
D|----2-----------2-----2-----------2-|
A|-3-----------------0-----------------|
E|-------------------------------------|

[ Tab from: http://www.guitaretab.com/l/lincoln-brewster/84169.html ]
E|----------0-----------------0---------|
B|-------1----1------------1-----1------|
G|----2----------2------2----------2----|
D|-2-----------------2-----------------|
A|--------------------------------------|
E|--------------------------------------|


Hallelujah
E|------------------------------------|
B|----------1-----------------0-------|
G|-------0-----0-----------2-----0----|
D|----2-----------2-----2-----------2-|
A|-3-----------------0----------------|
E|------------------------------------|

E|-------------------------------------|
B|----------1-----------------1--------|
G|-------0-----0-----------2-----2-----|
D|----2-----------2-----2-----------2-|
A|-3-----------------0-----------------|
E|-------------------------------------|


E|-------------------------------------|
B|----------1--------------------------|
G|-------0-----0-----------------------|
D|----2-----------2-------------------|
A|-3-----------------0-----------------|
E|-------------------------------------|

Chorus:
 Hallelujah
E|----------0-----------------0-------|
B|-------1----1------------1-----1----|
G|----2----------2------0----------0--|
D|-2-----------------2---------------|
A|------------------------------------|
E|------------------------------------|

 Hallelujah
E|-------------------------------------|
B|----------1-----------------1--------|
G|-------0-----0-----------2-----0-----|
D|----2-----------2-----2-----------2-|
A|-3-----------------0-----------------|
E|-------------------------------------|


E|----------0-----------------0---------|
B|-------1----1------------1-----1------|
G|----2----------2------2----------2----|
D|-2-----------------2-----------------|
A|--------------------------------------|
E|--------------------------------------|


Hallelujah
E|----------------------------3-------|
B|----------1-------------------------|
G|-------0-----0-----------2-----0----|
D|----2-----------2-----2-----------2-|
A|-3-----------------0----------------|
E|------------------------------------|

E|-------------------------|
B|-1-1-1-1-1-1-1-1-1-1-1-1-|
G|-0-0-0-0-0-0-2-2-2-2-2-2-|
D|-2-2-2-2-2-2-2-2-2-2-2-2-|X4
A|-3-3-3-3-3-3-0-0-0-0-0-0-|
E|-------------------------|


Hallelujah
E|-------------------------|
B|-1-1-1-1-1-1-1-1-1-1-1-1-|
G|-0-0-0-0-0-0-0-0-0-0-0-0-|
D|-2-2-2-2-2-2-2-2-2-2-2-2-|
A|-3-3-3-3-3-3-3-3-3-3-3-3-|
E|-------------------------|


Hallelujah
E|-------------------------|
B|-1-1-1-1-1-1-1-1-1-1-1-1-|
G|-2-2-2-2-2-2-2-2-2-2-2-2-|
D|-2-2-2-2-2-2-2-2-2-2-2-2-|
A|-0-0-0-0-0-0-0-0-0-0-0-0-|
E|-------------------------|


Hallelujah
E|-------------------------|
B|-1-1-1-1-1-1-1-1-1-1-1-1-|
G|-0-0-0-0-0-0-0-0-0-0-0-0-|
D|-2-2-2-2-2-2-2-2-2-2-2-2-|
A|-3-3-3-3-3-3-3-3-3-3-3-3-|
E|-------------------------|


Hallelujah
E|-------------------------|
B|-1-1-1-1-1-1-1-1-1-1-1-1-|
G|-2-2-2-2-2-2-0-0-0-0-0-0-|
D|-2-2-2-2-2-2-2-2-2-2-2-2-|
A|-0-0-0-0-0-0-3-3-3-3-3-3-|
E|-------------------------|

E|-------------------------|
B|-1-1-1-1-1-1-1-1-1-1-1-1-|
G|-0-0-0-0-0-0-2-2-2-2-2-2-|
D|-2-2-2-2-2-2-2-2-2-2-2-2-|X2
A|-3-3-3-3-3-3-0-0-0-0-0-0-|
E|-------------------------|


Hallelujah
E|-------------------------|
B|-1-1-1-1-1-1-1-1-1-1-1-1-|
G|-0-0-0-0-0-0-0-0-0-0-0-0-|
D|-2-2-2-2-2-2-2-2-2-2-2-2-|
A|-3-3-3-3-3-3-3-3-3-3-3-3-|
E|-------------------------|


Hallelujah
E|-------------------------|
B|-1-1-1-1-1-1-1-1-1-1-1-1-|
G|-2-2-2-2-2-2-2-2-2-2-2-2-|
D|-2-2-2-2-2-2-2-2-2-2-2-2-|
A|-0-0-0-0-0-0-0-0-0-0-0-0-|
E|-------------------------|


Hallelujah
E|-------------------------|
B|-1-1-1-1-1-1-1-1-1-1-1-1-|
G|-0-0-0-0-0-0-0-0-0-0-0-0-|
D|-2-2-2-2-2-2-2-2-2-2-2-2-|
A|-3-3-3-3-3-3-3-3-3-3-3-3-|
E|-------------------------|


Hallelujah
E|-------------------------|
B|-1-1-1-1-1-1-1-1-1-1-1-1-|
G|-2-2-2-2-2-0-0-0-0-0-0-0-|
D|-2-2-2-2-2-2-2-2-2-2-2-2-|
A|-0-0-0-0-0-3-3-3-3-3-3-3-|
E|-------------------------|

E|-------------------------|
B|-1-1-1-1-1-1-1-1-1-1-1-1-|
G|-0-0-0-0-0-0-2-2-2-2-2-2-|
D|-2-2-2-2-2-2-2-2-2-2-2-2-|X2
A|-3-3-3-3-3-3-0-0-0-0-0-0-|
E|-------------------------|


Hallelujah
E|-------------------------|
B|-1-1-1-1-1-1-1-1-1-1-1-1-|
G|-0-0-0-0-0-0-0-0-0-0-0-0-|
D|-2-2-2-2-2-2-2-2-2-2-2-2-|
A|-3-3-3-3-3-3-3-3-3-3-3-3-|
E|-------------------------|


Hallelujah
E|-------------------------|
B|-1-1-1-1-1-1-1-1-1-1-1-1-|
G|-2-2-2-2-2-2-2-2-2-2-2-2-|
D|-2-2-2-2-2-2-2-2-2-2-2-2-|
A|-0-0-0-0-0-0-0-0-0-0-0-0-|
E|-------------------------|


Hallelujah
E|-------------------------|
B|-1-1-1-1-1-1-1-1-1-1-1-1-|
G|-0-0-0-0-0-0-0-0-0-0-0-0-|
D|-2-2-2-2-2-2-2-2-2-2-2-2-|
A|-3-3-3-3-3-3-3-3-3-3-3-3-|
E|-------------------------|


Hallelujah
E|-------------------------|
B|-1-1-1-1-1-1-1-1-1-1-1-1-|
G|-2-2-2-2-2-2-2-2-2-2-2-2-|
D|-2-2-2-2-2-2-2-2-2-2-2-2-|
A|-0-0-0-0-0-0-0-0-0-0-0-0-|
E|-------------------------|


Hallelujah
E|-------------------------|
B|-1-1-1-1-1-1-1-1-1-1-1-1-|
G|-0-0-0-0-0-0-0-0-0-0-0-0-|
D|-2-2-2-2-2-2-2-2-2-2-2-2-|
A|-3-3-3-3-3-3-3-3-3-3-3-3-|
E|-------------------------|


Hallelujah
E|-------------------------|
B|-1-1-1-1-1-1-1-1-1-1-1-1-|
G|-2-2-2-2-2-2-2-2-2-2-2-2-|
D|-2-2-2-2-2-2-2-2-2-2-2-2-|
A|-0-0-0-0-0-0-0-0-0-0-0-0-|
E|-------------------------|


Hallelujah
E|-------------------------|
B|-1-1-1-1-1-1-1-1-1-1-1-1-|
G|-0-0-0-0-0-0-0-0-0-0-0-0-|
D|-2-2-2-2-2-2-2-2-2-2-2-2-|
A|-3-3-3-3-3-3-3-3-3-3-3-3-|
E|-------------------------|


Hallelujah
E|-------------------------|
B|-1-1-1-1-1-1-1-1-1-1-1-1-|
G|-2-2-2-2-2-0-0-0-0-0-0-0-|
D|-2-2-2-2-2-2-2-2-2-2-2-2-|
A|-0-0-0-0-0-3-3-3-3-3-3-3-|
E|-------------------------|

E|-------------------------|
B|-1-1-1-1-1-1-1-1-1-1-1-1-|
G|-0-0-0-0-0-0-2-2-2-2-2-2-|
D|-2-2-2-2-2-2-2-2-2-2-2-2-|X2
A|-3-3-3-3-3-3-0-0-0-0-0-0-|
E|-------------------------|

Hallelujah
E|-------------------------|
B|-1-1-1-1-1-1-1-1-1-1-1-1-|
G|-0-0-0-0-0-0-0-0-0-0-0-0-|
D|-2-2-2-2-2-2-2-2-2-2-2-2-|
A|-3-3-3-3-3-3-3-3-3-3-3-3-|
E|-------------------------|


Hallelujah
E|-------------------------|
B|-1-1-1-1-1-1-1-1-1-1-1-1-|
G|-2-2-2-2-2-2-2-2-2-2-2-2-|
D|-2-2-2-2-2-2-2-2-2-2-2-2-|
A|-0-0-0-0-0-0-0-0-0-0-0-0-|
E|-------------------------|


Hallelujah
E|-------------------------|
B|-1-1-1-1-1-1-1-1-1-1-1-1-|
G|-0-0-0-0-0-0-0-0-0-0-0-0-|
D|-2-2-2-2-2-2-2-2-2-2-2-2-|
A|-3-3-3-3-3-3-3-3-3-3-3-3-|
E|-------------------------|


Hallelujah
E|-------------------------|
B|-1-1-1-1-1-1-1-1-1-1-1-1-|
G|-2-2-2-2-2-0-0-0-0-0-0-0-|
D|-2-2-2-2-2-2-2-2-2-2-2-2-|
A|-0-0-0-0-0-3-3-3-3-3-3-3-|
E|-------------------------|

E|-------------------------|
B|-1-1-1-1-1-1-1-1-1-1-1-1-|
G|-0-0-0-0-0-0-2-2-2-2-2-2-|
D|-2-2-2-2-2-2-2-2-2-2-2-2-|X4
A|-3-3-3-3-3-3-0-0-0-0-0-0-|
E|-------------------------|


E|--|
B|-1|
G|-0|
D|-2|
A|-3|
E|--|
Related for Another Hallelujah tab