Song name
# A B C D E F G H I J K L M N O P Q R S T U V W X Y Z

Lincoln Brewster - Great Is Thy Faithfulness tab

Intro:
E|---------------------------------------|
B|--------1--------------------1---------|
G|--------------0--------------------0---|
D|----2------2-----2-------2------2----2|
A|-3-------------------3-----------------|
E|---------------------------------------|


E|-------------------------|
B|--------1----------------|
G|--------------0----------|
D|----2------2-----2-------|
A|-3-------------------3/15|
E|-------------------------|
Tap to rate this tab
# A B C D E F G H I J K L M N O P Q R S T U V W X Y Z