Song name
# A B C D E F G H I J K L M N O P Q R S T U V W X Y Z

Linda Martini - Ratos tab

Esta é a minha primeira tab.
Aprendi a música de ouvido e tenho vindo a tocar junto com o cd e acho que está 
correctamente transcrita. Vou fazer a tablatura para as duas guitarras (Pedro e André) de modo a 
que se consiga entender bem a música.
Não tenho bem a certeza acerca das vezes que repete cada trecho, mas oiçam a música e 
chegam lá facilmente.
Espero que gostem. Dúvidas, críticas ou alguma coisa, comentário ou: ruig947@gmail.com

Pedro:

E|----------------------------------|
B|--------8---------------8---------|
G|--8-9-8---9-8-9-9-8-9-8---9-8-9-9-|
D|-7-7-7-7-7-7-7-7-7-7-7-7-7-7-7-7--|
A|----------------------------------|
E|----------------------------------|

A última vez antes de entrar a voz, esta guitarra varia, fazendo isto:

E|----------------------|
B|--7-7-7-7-10-10-10-10-|
G|----------------------|
D|-9-9-9-9-12-12-12-12--|
A|----------------------|
E|----------------------|

A guitarra do André, porém, só entra quando a bateria entra, ou seja, ao fim de 4/5 
vezes da guitarra do Pedro tocar aquele trecho inicial.

E|---------------------------------|
B|-1-0-1-0-1-0-1-0-5-5-5-5-4-4-5-5-|
G|-2-2-2-2-2-2-2-2-6-6-6-6-5-5-5-5-|
D|-2-2-2-2-2-2-2-2-6-6-6-6-5-5-5-5-|
A|---------------------------------|
E|---------------------------------|

Quando a guitarra do Pedro faz a variação antes da voz, o André varia também.

E|-----------------|
B|-6-6-6-6-5-5-5-5-|
G|-7-7-7-7-6-6-6-6-|
D|-7-7-7-7-6-6-6-6-|
A|-----------------|
E|-----------------|

A variação nas duas guitarras ocorrem também antes do "Nós de amarra..."
Após a última vez do refrão e antes do "Dá-me a vista, para olhar..." a introdução volta 
a ser tocada. Mas isso é uma questão de se ouvir a música e perceber onde tocar a introdução.
Tap to rate this tab
 
# A B C D E F G H I J K L M N O P Q R S T U V W X Y Z