Song name
# A B C D E F G H I J K L M N O P Q R S T U V W X Y Z

Linda Ronstadt - Thatll Be The Day tab

Here's the tab for an old tune by Linda Ronstadt. I had to tab this out by ear for
an audition, so here's the lead fills for the whole song. Tab notation at the bottom.
To match the recording, capo the first fret. All tab is relative to the capo.

Intro riff is a basic rockabilly lick going from A5 to E5.

Verse 1 Fill:

E------5~--5~------|------------------|
B------------------|------5~--5~------|
G--4/6---6---------|------------------|
D------------------|--4/6---6---------|
A------------------|------------------|
E------------------|------------------|

Verse 2 Fills:

E-----------------------------------------------------------|
B-----------------------------------------------------------|
G-----------------------------------------------------------|
D------2-4-2~-----2-4---------2-4--------2-4---------2-4-2~-|
A--2/4--------2/4-----0---2/4--------2/4-----0--2/4---------|
E---------------------------------0-------------------------|

E-----------------7~--7~-|
B-----5~--5~-------------|
G-------------6/8---6----|
D-4/6---6----------------|
A------------------------|
E------------------------|

Solo:

E---------------------------------------|
B-15b-----------------------------------|
G-----14br-12~--------------------15-17-|
D--------------15~-15-12-15-15-17-------|
A---------------------------------------|
E---------------------------------------|

E-15-17br---------17b-17-15-------------|
B--------17~~-17------------17-15----15-|
G---------------------------------17----|
D---------------------------------------|
A---------------------------------------|
E---------------------------------------|

E------------------------------------------|
B------------------------------------------|
G-17-15---------------------13-15-13-15-17-|
D-------17-16-15---------15~---------------|
A---------------17-16-15-------------------|
E------------------------------------------|

E------------------------------------------|
B------------------------------------------|
G-15-13-12-------------15-17br--------17V--|
D----------15-17-17-17--------17~-17V------|
A------------------------------------------|
E------------------------------------------|
                      trem.pick  |-------|

E---------------------------------------------|
B---------------------------------------------|
G-----10-10-----10-10----10-12b-10-12-10-10~--|
D-/12-------/12-------12----------------------|
A---------------------------------------------|
E---------------------------------------------|

E------------------------------------------------------------------|
B-13-12-10-----13-12-10-----13-12-10-------------------------------|
G----------12b----------12b----------13-12-10----------------------|
D---------------------------------------------13-12-10-------------|
A------------------------------------------------------13-12-10-12~|
E------------------------------------------------------------------|

E-/13--/12--/11--/9-|-----------------------|---------------|
B-/13--/12--/11--/9-|o-9-12b-12-9----------o|-12b-12--------|
G-/13--/12--/11--/9-|-------------11-9-11---|--------11-9~--|
D-------------------|o---------------------o|---------------|
A-------------------|-----------------------|---------------|
E-------------------|-----------------------|---------------|

Verse 3 Fills:
                3X    
E----14--14--14---|--------------|
Bo--*17b-17b-17b-o|--------------|
G-----------------|-------17V----|  *-Hold bend the whole time.
Do---------------o|--17V---------|
A-----------------|--------------|
E-----------------|--------------|
After "ever part" | after "tell me bodly"

then play the Intro riff until outro riff

Outro Riff:

E------------------------------------10--9~---|
B-8--10-9-8--------------------------10--9~---|
G-----------10-9-8-------------------10--9~---|
D------------------10-9-8-------------9--8~---|
A-------------------------10-9-8-7---10--9~---|
E---------------------------------------------|
Tap to rate this tab
# A B C D E F G H I J K L M N O P Q R S T U V W X Y Z