Song name
# A B C D E F G H I J K L M N O P Q R S T U V W X Y Z

Linda Ronstadt - Youre No Good tab

-----------------------------------------------------------------
You're No Good - Linda Ronstadt
-----------------------------------------------------------------
Tabbed by: Kevin Davis
Email: joenate90@yahoo.com
Tuning: Standard (key of Bb minor)

GUITAR 1 PLAY THIS FOUR TIMES: 
E|---------------------------------------------------------------|
B|-------4-----4~~---------5--------5~~~-------------------------|
G|---------6-------------------6---------------------------------|
D|----6-----6-----------4-------4--------------------------------|
A|---------------------------------------------------------------|
E|---------------------------------------------------------------|


THE THIRD TIME GUITAR 2 DOUBLES WITH THIS 2x:
E|---------------------------------------------------------------|
B|---------------------------------------------------------------|
G|---------------------------------------------------------------|
D|--------------------------1------------------------------------|
A|--1---4----4------1--/4-----4~~~~~~~---------------------------|
E|-------3----2---2----------------------------------------------|

GUITAR 1 THEN PLAYS THIS:  
E|----------------------------13br~~~~~---11-----11--------------|
B|---------10br----13br-11--------------------14-----------------|
G|------11-----11---------13---------------------------13\10-----|
D|--/11----------------------------------------------------------|
A|---------------------------------------------------------------|
E|---------------------------------------------------------------|

E|---------------------------------------------------------------|
B|---------------------------------13~~~-------------------------|
G|--10\8/10---12\10/12--14\12/14------------14p12----------------|
D|------------------------------------------------15-------------|
A|---------------------------------------------------------------|
E|---------------------------------------------------------------|

E|------------13~~~~~~~~-----------------------------------------|
B|--13\12/13-----------------------------------------------------|
G|---------------------------------------------------------------|
D|---------------------------------------------------------------|
A|---------------------------------------------------------------|
E|---------------------------------------------------------------|


Tablature Notation

h - hammer on
p - pull off
b - bend string up
r - release bend
/ - slide up
\ - slide down
v - vibrato (or ~)
t - right hand tap
x - play 'note' with heavy muting

Tap to rate this tab
 
# A B C D E F G H I J K L M N O P Q R S T U V W X Y Z