Song name
# A B C D E F G H I J K L M N O P Q R S T U V W X Y Z

Lindholm Dave - Pieni Ja Hento Ote tab

'Pieni ja hento ote'

Words & music by Dave Lindholm.
Album: Aino (1982)


Intro solo:

E-------7-----7~------------------------------------------|
B------7-7-10---------------------------2s\10-------------|
G--9b11----------9b11-9--7~--9b11-9--7~-------9b11-9--7~--|
D---------------------------------------------------------|
A---------------------------------------------------------|
E---------------------------------------------------------|


After 1st chorus:

E-------7-----7~--------------------------|
B------7-7-10-----------------------------|
G--9b11----------9b11-9--7-----7b9-7------|
D-----------------------------------------|
A-----------------------------------------|
E-----------------------------------------|


After 2nd chorus:

E------------------------7----------------|
B--12~------------------7--10b12-10-------|
G----------9b10-9----9b11-----------------|
D-----------------------------------------|
A-----------------------------------------|
E-----------------------------------------|


Final solo (not finished):

E--------------------------------------------------------------|
B--10b12~----------------10b12~---------------7s\10~----5b7-3~-|
G-----------9b10p9-7~------------9b109-9b12~-------------------|
D--------------------------------------------------------------|
A--------------------------------------------------------------|
E--------------------------------------------------------------|

E------5-----------------7----------------------------------------|
B----5--10-7---------10-------------------------------------------|
G--7--------9b11-7~--------------------7----------------9b10p9-7--|
D-----------------------------------7----9~--------7--------------|
A-----------------------------7h-9--------------s9----------------|
E-----------------------------------------------------------------|

           palm muting here:  |-------------------|

E-------------------7-----------7-9-7------------------7-10--10b12-10b-d----|e
B---------------------10-------7------7--------------10b--------------------|o-k-n
G--9b10p9--7h9p7~---------7---9---------7--9b10h7---------------------------|n-n-d
D------------------------------------------------9--------------------------|t-o-i
A---------------------------------------------------------------------------|w-n
E---------------------------------------------------------------------------|g


- There might be little mistakes but I think this are 90% correct.
- All the other fills etc. are easy to find from the neck.(Use notes from B minor 
pentatonic scale).
- This is a beautiful and classic song which include nice guitar solos played by Dave.
Tap to rate this tab
# A B C D E F G H I J K L M N O P Q R S T U V W X Y Z