Song name
# A B C D E F G H I J K L M N O P Q R S T U V W X Y Z

Lindsay Lohan - Take Me Away tab

-------------------------------------------------------------------------------
			Take me away - Pink slip
-------------------------------------------------------------------------------
Tabbed by:Eduardo "Munky" Lan
Email:eduardolan_12@hotmail.com

Tuning:ebGDAE

e|--------------------------------------------------------------------------|
B|---------------------------------------------------------19^19-17-15-14^--|
G|------------------------------17^-17-15-12-11^-11-9-7-14^-----------------|
D|-------------------11^-9-7------------------------------------------------|
A|--9^9^9^-7p0--9^9^---------9----------------------------------------------|
E|--------------------------------------------------------------------------|

e|------------------------------------------------------------------11--14--15-----|
B|-14-14-12-10-19^19-17\14-15^-17^-18^-7-99-7-99--------------------14^-17^-19^----|
G|-----------------------------------------------11-10-11-13-11-10^----------------|
D|---------------------------------------------------------------------------------|
A|---------------------------------------------------------------------------------|
E|---------------------------------------------------------------------------------|

this is a solo for beginners , pretty easy i think , just a little practice , some ear 
it , and you'll be playing it in no time
enjoy!!!

| \  slide down
| p  pull-off
| ^  bends
===============================================================================
Tap to rate this tab
 
# A B C D E F G H I J K L M N O P Q R S T U V W X Y Z