Song name
# A B C D E F G H I J K L M N O P Q R S T U V W X Y Z

Lindsay Lohan - Edge Of Seventeen tab

Help us improve GuitareTab! Take a short survey!
Palm mute:
(im not sure how many times)

----------------------------------------------------|
----------------------------------------------------|
-----5-----------7----------------------------------|
-----5-----------7-----------2----------------------|
-----3----x6-----5---x8------2---x11----------------|
----------------------------------------------------|


chorus:

-------------------------------------------------------------------------|
-------------------------------------------------------------------------|
-----5---------------7---------------------------------------------------|
-----5---------------7------------2--------x---------2---------x---------|
-----3----x6---------5----x8------2---x2---x---x3----2---x2----x----x3---|


---------------------------------------------|
---------------------------------------------|
---------------------------------------------|
---2-----------------------------------------|
---2----x6-----------------------------------|
---------------------------------------------|

verse 2 the same like verse 1 .
i hope you like it (;
Related for Edge Of Seventeen tab