Song name
# A B C D E F G H I J K L M N O P Q R S T U V W X Y Z

Lindsay Lohan - Over chords

Highlighted       Show chord diagrams
[Intro]
Guitar 1:
Cm-Fm-Cm-Fm

Guitar 2:
E|--------------------|---------------------|
B|-------11-9-8-6-9-8-|-------11-13-8-6-9-8-|
G|-5-7-8--------------|-5-7-8---------------|
D|--------------------|---------------------|
A|--------------------|---------------------|
E|--------------------|---------------------|

[Verse 1]
Cm                          Fm
I watch the walls around me crumble
Cm                                       Fm
But it's not like I won't build them up again
Cm                               Fm
So here's your last chance for redemption
G#m
So take it while it lasts cause it will end

[Bridge 1]
       Fm                     G#m
And my tears are turning into time
                      Fm                G#m
I've wasted trying to find a reason for goodbye

[Chorus 1]
        D#m
I can't live without you
Can't breathe without you
    G#m
I'm dreaming about you, honestly
Cm                G#m
Tell me that it's over
             D#m
Cause if the world is spinning and I'm still living
G#m                                    Cm
It won't be right if we're not in it together
Fm      G#m       Cm
Tell me that it's over

[Verse 2]
Fm                       Cm
And I'll be the first to go
Fm                         Cm
Don't wanna be the last to know
                      Fm
I won't be the one to chase you
           Cm
But at the same time
                             Fm
You're the heart that I call home
Cm                           Fm
I'm always stuck with these emotions
        G#m
And the more I try to feel, the less I'm whole

[Bridge 2]
   Fm                     G#m
My tears are turning into time
                      Fm                G#m
I've wasted trying to find a reason for goodbye

[Chorus 2]
        D#m
I can't live without you
Can't breathe without you
    G#m
I'm dreaming about you, honestly
Cm                G#m
Tell me that it's over
             D#m
Cause if the world is spinning and I'm still living
G#m                                    Cm
It won't be right if we're not in it together
Fm      G#m       Cm
Tell me that it's over

[Break]
Guitar 1:
Fm                       Cm
And I'll be the first to go
                           Fm
Yeah, I'll be the first to go
                           Cm Fm
Don't wanna be the last to know
Cm
Over
Over
Fm
Over

Guitar 2:
E|---------------------------------|
B|---------------------------------|
G|---------------------------------|
D|---------------------------------|
A|-3-3-3-3-5-5-5-5-6-6-6-6-8-8-8-8-|
E|---------------------------------|

E|-------------------------------------------------|
B|-------------------------------------------------|
G|-------------------------------------------------|
D|-------------------------------------------------|
A|-10-10-10-10-11-11-11-11-13-13-13-13-13-13-13-13-|
E|-------------------------------------------------|

E|---------------------------------|
B|---------------------------------|
G|---------------------------------|
D|---------------------------------|
A|-3-3-3-3-5-5-5-5-6-6-6-6-8-8-8-8-|
E|---------------------------------|

E|-------------------------------------------------|
B|-------------------------------------------------|
G|-------------------------------------------------|
D|-------------------------------------------------|
A|-10-10-10-10-11-11-11-11-13-13-13-13-13-13-13-13-|
E|-------------------------------------------------|

[Bridge 3]
   G#m                    Fm
My tears are turning into time
                      G#m               Fm
I've wasted trying to find a reason for goodbye

[Chorus 3]
        D#m
I can't live without you
Can't breathe without you
    G#m
I'm dreaming about you, honestly
Cm                G#m
Tell me that it's over
             D#m
Cause if the world is spinning and I'm still living
G#m                                    Cm
It won't be right if we're not in it together
Fm      G#m       D#m
Tell me that it's over

[Outro]
G#m               Cm
Tell me that it's over
G#m
Over
Fm
Honestly tell me
G#m
Honestly tell me
      Fm
Don't tell me that it's over
      G#m                Cm
Don't tell me that it's over
Tap to rate this tab
# A B C D E F G H I J K L M N O P Q R S T U V W X Y Z