Song name
# A B C D E F G H I J K L M N O P Q R S T U V W X Y Z

Lindsay Lohan - Be With You chords

Highlighted       Show chord diagrams
Lindsay Lohan
Be With You
Spirit In The Dark
2010 Casablanca Records

This is 100% correct!!!
this video is a proof

http://www.youtube.com/watch?v=ZQp1jPKhg40

I think that Lindsay is inspired by
THE KILLERS in this great catchy song
I'm hoping that this album will
show maturity for her, can't wait!!!

Key: Bb

Tuning: Standard EADGBe

Chords used:
Eb - x68886
Bb - x13331
Gm - 355333
F -  133211


Intro: Eb-Bb-Gm-F- x5

Guitar 2: Cool Riff
e|-----------13------13--10----------------------------------|
B|-------11------11-----------------11-----11-----11--10-----|
G|-12-12----------------------12-12-----12-----12---------10-|
D|-----------------------------------------------------------| x4
A|-----------------------------------------------------------|
E|-----------------------------------------------------------|


Verse 1:
Eb   Bb   Gm
I do know life's been
         F
hard for you my love
      Eb       Bb
We'll take it slow
    Gm               F
and let our feelings grow
Eb     Bb    Gm
Day by day I feel I'm
        F
getting closer to you
  Eb          Bb
oh, Come with me, won't
Gm            F
let you slip away


Refrain: Eb-Bb-Gm-F


Chorus:
Eb
Deep in your heart you
    Bb
are longing for love
Gm           F
  I know you want me too
Eb
Deep in your heart you
    Bb
are longing for love
Gm             F
  That's all I want from you
Eb
Deep in your heart you
    Bb
are longing for love
Gm             F
  You feel the way I do
Eb
Deep in your heart you
    Bb
are longing for love
Gm           F
  And I keep longing
to be with you


Post Chorus : Eb-Bb-Gm-F- x2

Guitar 2:
e|-----------13------13--10----------------------------------|
B|-------11------11-----------------11-----11-----11--10-----|
G|-12-12----------------------12-12-----12-----12---------10-|
D|-----------------------------------------------------------| x2
A|-----------------------------------------------------------|
E|-----------------------------------------------------------|


Verse 2:
Eb    Bb   Gm
To survive you have
         F
tried to run from love
Eb          Bb
Deep down inside you
Gm              F
want me in your life
 Eb       Bb
Stone by stone I
    Gm
I'm breaking
          F
down this wall
around your heart oh
Eb       Bb      Gm
  I hold on till all
               F
your fears are gone


(Repeat Refrain twice with guitar 2 overlapping)
(Repeat Chorus)


Outro: Eb-Bb-Gm-F- x2

Guitar 2:
e|-----------13------13--10----------------------------------|
B|-------11------11-----------------11-----11-----11--10-----|
G|-12-12----------------------12-12-----12-----12---------10-|
D|-----------------------------------------------------------| x2
A|-----------------------------------------------------------|
E|-----------------------------------------------------------|
Tap to rate this tab
 
# A B C D E F G H I J K L M N O P Q R S T U V W X Y Z