Song name
# A B C D E F G H I J K L M N O P Q R S T U V W X Y Z

Lindsay Mccaul - Hold On To Me tab

No Capo

E: 022100
E6: 046600
Asus2: 002200
Badd11: 799800

Intro
|-----------------------------------|
|---0---0---0---0---0---0---0---0---|
|-----------------------------------|
|-----6-------6-------6-------6-----|
|--7------7-------7-------7---------|
|-----------------------------------| X2

                  I am like a field, blowing in the wind
|---------------------------------------------------------------------|
|---0---0---0---0---0---0---0---0---0---0---0---0---0---0---0---0-----|
|---------------------------------------------------------------------|
|-----6-------6-------6-------6-------6-------6-------6-------6-------|
|--7------7-------7-------7-------6-------6-------6-------6-----------|
|--------------------------------------------------------------------|

                  Trying to stand tell, when I can't help but bend
|---------------------------------------------------------------------|
|---0---0---0---0---0---0---0---0---0---0---0---0---0---0---0---0-----|
|---------------------------------------------------------------------|
|-----6-------6-------6-------6-------6-------6-------6-------6-------|
|---------------------------------6-------6-------6-------6-----------|
|-5-------5-------5-------5-------------------------------------------|

                  And all I'm standing on, is all my good intent
|---------------------------------------------------------------------|
|---0---0---0---0---0---0---0---0---0---0---0---0---0---0---0---0-----|
|---------------------------------------------------------------------|
|-----6-------6-------6-------6-------6-------6-------6-------6-------|
|--7------7-------7-------7-------6-------6-------6-------6-----------|
|---------------------------------------------------------------------|

                 As I get swept away, time and time again
|---------------------------------------------------------------------|
|---0---0---0---0---0---0---0---0---0---0---0---0---0---0---0---0-----|
|---------------------------------------------------------------------|
|-----6-------6-------6-------6-------6-------6-------6-------6-------|
|---------------------------------6-------6-------6-------6-----------|
|-5-------5-------5-------5-------------------------------------------|

|-----------------------------------|
|---0---0---0---0---0---0---0---0---|
|-----------------------------------|
|-----6-------6-------6-------6-----|
|--7------7-------7-------7---------|
|-----------------------------------|

     E6       Asus2   Badd11
 And I know I need you now
|---------------------------------------------------------------------|
|---0---0---0---0---0---0---0---0---0---0---0---0---0---0---0---0-----|
|---------------------------------------------------------------------|
|-----6-------6-------6-------6-------6-------6-------6-------6-------|
|---------------------------------------------------------------------|
|-4-------4-------5-------5-------7-------7-------7-------7-----------|
     E6        Asus2  Badd11
  To do what I can't somehow
|---------------------------------------------------------------------|
|---0---0---0---0---0---0---0---0---0---0---0---0---0---0---0---0-----|
|---------------------------------------------------------------------|
|-----6-------6-------6-------6-------6-------6-------6-------6-------|
|---------------------------------------------------------------------|
|-4-------4-------5-------5-------7-------7-------7-------7-----------|
     E6  Asus2  E  Badd11
 So hold on to me, cause I'm not good at
|---------------------------------------------------------------------|
|---0---0---0---0---0---0---0---0---0---0---0---0---0---0---0---0-----|
|---------------------------------------------------------------------|
|-----6-------6-------6-------6-------6-------6-------6-------6-------|
|-0-------0-------0-------0-------7-------7-------6-------6-----------|
|---------------------------------------------------------------------|

    E6  Asus2     E     Badd11
 Holding on, I'm weak.  I guess that's how this 
|---------------------------------------------------------------------|
|---0---0---0---0---0---0---0---0---0---0---0---0---0---0---0---0-----|
|---------------------------------------------------------------------|
|-----6-------6-------6-------6-------6-------6-------6-------6-------|
|-0-------0-------0-------0-------7-------7-------6-------6-----------|
|---------------------------------------------------------------------|

  E6  Asus2      E       Badd11
  Is supposed to be, when I am barely
|---------------------------------------------------------------------|
|---0---0---0---0---0---0---0---0---0---0---0---0---0---0---0---0-----|
|---------------------------------------------------------------------|
|-----6-------6-------6-------6-------6-------6-------6-------6-------|
|-0-------0-------0-------0-------7-------7-------6-------6-----------|
|---------------------------------------------------------------------|

   E6        Badd11 
 Holding on, You hold on to me
|------------------------------------------------------|
|---0---0---0---0---0---0---0---0---0---0---0---0------|
|------------------------------------------------------|
|-----6-------6-------6-------6-------6-------6--------|
|-0-------0-------0-------0-------6-------6-------6----|
|------------------------------------------------------|


(Intro)

(verse 2)(Same as verse 1)


Bridge
  You're the ground that doesn't shake, You're the branch that doesn't break
|---------------------------------------------------------------------|
|---0---0---0---0---0---0---0---0---0---0---0---0---0---0---0---0-----|
|---------------------------------------------------------------------|
|-----6-------6-------6-------6-------6-------6-------6-------6-------|
|--7------7-------7-------7-------6-------6-------6-------6-----------|
|---------------------------------------------------------------------|

 You're the light that never fades and you're holding on              
|---------------------------------------------------------------------|
|---0---0---0---0---0---0---0---0---0---0---0---0---0---0---0---0-----|
|---------------------------------------------------------------------|
|-----6-------6-------6-------6-------6-------6-------6-------6-------|
|---------------------------------7-------7-------6-------6-----------|
|-5-------5-------5-------5-------------------------------------------|

   There’s never been a time, You’ve ever left my side
|---------------------------------------------------------------------|
|---0---0---0---0---0---0---0---0---0---0---0---0---0---0---0---0-----|
|---------------------------------------------------------------------|
|-----6-------6-------6-------6-------6-------6-------6-------6-------|
|--7------7-------7-------7-------6-------6-------6-------6-----------|
|---------------------------------------------------------------------|
  Your love never dies, and You’re holding on
|---------------------------------------------------------------------|
|---0---0---0---0---0---0---0---0---0---0---0---0---0---0---0---0-----|
|---------------------------------------------------------------------|
|-----6-------6-------6-------6-------6-------6-------6-------6-------|
|---------------------------------7-------7-------6-------6-----------|
|-5-------5-------5-------5-------------------------------------------|


Please rate 5 stars!:) God Bless<3
Tap to rate this tab
# A B C D E F G H I J K L M N O P Q R S T U V W X Y Z