Song name
# A B C D E F G H I J K L M N O P Q R S T U V W X Y Z

Lindsey Buckingham - Street Of Dreams tab

STREET OF DREAMS
written and performed by Lindsey Buckingham
from the album Out of the Cradle
transcribed by Jen Swofford (bwana@littleduck.com)

I spent the better portion of 03/15/99 sitting on my living room floor, transcribing
this song, having only one week's worth of guitar experience in the past 14 years.  It's
unfinished, but it's a noble first attempt at tab.  :)


tuning = Eb Ab Db Gb Bb eb (tune all strings down one half step)

eb|----------|----------|----------|----------|----------|----------|----------|----------|
Bb|----------|-----2----|-----3/2--|----------|----------|-----2----|-----3/2--|----------|
Gb|-----2----|----------|----------|----------|-----2----|----------|----------|----------|
Db|-4--------|----------|-0--------|-----3----|-4--------|----------|-0--------|-----3----|
Ab|----------|-4--------|----------|-4--------|----------|-4--------|----------|-4--------|
Eb|----------|----------|----------|----------|----------|----------|----------|----------|
                                                                                       Can’t
get

eb|----------|----------|----------|----------|----------|----------|----------|----------|
Bb|----------|-----2----|-----3/2--|----------|----------|-----2----|-----3/2--|----------|
Gb|-----2----|----------|----------|----------|-----2----|----------|----------|----------|
Db|-4--------|----------|-0--------|-----3----|-4--------|----------|-0--------|-----3----|
Ab|----------|-4--------|----------|-4--------|----------|-4--------|----------|-4--------|
Eb|----------|----------|----------|----------|----------|----------|----------|----------|
    going                                fear is showing                               On this

eb|---------2---------------|---------2---------------|---------2---------------|
Bb|-----2-------------------|-----2-------------------|-----2-------------------|
Gb|-------------------------|-------------------------|-------------------------|
Db|-4-----------------------|-------------------------|-0-----------------------|
Ab|-------------------------|-4-----------------------|-------------------------|
Eb|-------------------------|-------------------------|-------------------------|
   lonely        lonely      lonely        lonely

eb|---------1---------------|---------2---------------|---------2---------------|
Bb|-----2-------------------|-----2-------------------|-----2-------------------|
Gb|-------------------------|-------------------------|-------------------------|
Db|-------------------------|-------------------------|-4-----------------------|
Ab|-4-----------------------|-0-----------------------|-------------------------|
Eb|-------------------------|-------------------------|-------------------------|
                    street of dreams

eb|---------2---------------|---------1---------------|
Bb|-----2-------------------|-----2-------------------|
Gb|-------------------------|-------------------------|
Db|-4-----------------------|-3-----------------------|
Ab|-------------------------|-------------------------|
Eb|-------------------------|-------------------------|
                                                  There’s no

eb|----------|----------|----------|----------|----------|----------|----------|----------|
Bb|----------|-----2----|-----3/2--|----------|----------|-----2----|-----3/2--|----------|
Gb|-----2----|----------|----------|----------|-----2----|----------|----------|----------|
Db|-4--------|----------|-0--------|-----3----|-4--------|----------|-0--------|-----3----|
Ab|----------|-4--------|----------|-4--------|----------|-4--------|----------|-4--------|
Eb|----------|----------|----------|----------|----------|----------|----------|----------|
    telling                               what they’re selling                         on this

eb|---------2---------------|---------2---------------|---------2---------------|
Bb|-----2-------------------|-----2-------------------|-----2-------------------|
Gb|-------------------------|-------------------------|-------------------------|
Db|-4-----------------------|-------------------------|-------------------------|
Ab|-------------------------|-4-----------------------|-------------------------|
Eb|-------------------------|-------------------------|-2-----------------------|
    lonely        lonely      lonely        lonely

eb|---------1---------------|---------2---------------|---------2---------------|
Bb|-----2-------------------|-----2-------------------|-----2-------------------|
Gb|-------------------------|-------------------------|-------------------------|
Db|-------------------------|-------------------------|-0-----------------------|
Ab|-4-----------------------|-0-----------------------|-------------------------|
Eb|-------------------------|-------------------------|-------------------------|
                    street of dreams

eb|---------2---------------|---------2---------------|---------0-----------2---|
Bb|-----0-------------------|-----2-------------------|-------------------------|
Gb|-------------------------|-------------------------|-----2-----------2-------|
Db|-------------------------|-0-----------------------|-------------2-----------|
Ab|-------------------------|-------------------------|-0-----------------------|
Eb|-4-----------------------|-------------------------|-------------------------|
                                              There’s a shadow on my daddy’s stone
where

eb|---------0----------2----|---------0-----------2---|---------0-----------2---|
Bb|-------------------------|-------------------------|-------------------------|
Gb|-----2-----------2-------|-----2-----------2-------|-----2-----------2-------|
Db|-0-----------0-----------|-------------2-----------|-0-----------0-----------|
Ab|-------------------------|-0-----------------------|-------------------------|
Eb|-------------------------|-------------------------|-------------------------|
    he was laid laid to rest I                          is it just another test I
                              ask him is this just a dream or

eb|---------7-----------5---|---------7-----------9---|---------7-----------5---|
Bb|---------0---------------|---------0---------------|---------0---------------|
Gb|-------------------------|---------------------6---|-------------------------|
Db|-----7-----------7---7---|-0---7-------0---7-------|-----7-----------7---7---|
Ab|-0-----------7-----------|-------------------------|-0-----------7-----------|
Eb|-------------------------|-------------------------|-------------------------|
    turn my back against the cold I                     wonder will I ever will I
                              turn my face into the wind I

eb|---------7-----------9---|---------7-----------5---|---------7-----------9---|
Bb|---------0---------------|---------0---------------|---------0---------------|
Gb|---------------------6---|-------------------------|---------------------6---|
Db|-0---7-------0---7-------|-----7-----------7---7---|-0---7-------0---7-------|
Ab|-------------------------|-0-----------7-----------|-------------------------|
Eb|-------------------------|-------------------------|-------------------------|
    ever ever make it home again                        10 years gone it seems I
                              shadow on daddy’s stone

eb|---------7-----------5---|---------7-----------9---|-------------------------|
Bb|---------0---------------|---------0---------------|-------------------------|
Gb|-------------------------|---------------------6---|-------------------------|
Db|-----7-----------7---7---|-0---7-------0---7-------|-------------------------|
Ab|-0-----------7-----------|-------------------------|-------------------------|
Eb|-------------------------|-------------------------|-4-----------------------|
    ask him will I ever stop                            never never never
                              ever stop dreaming dreams he said


eb|-------------------------|-------------------------|
Bb|-------------------------|-------------------------|
Gb|-------------------------|-------------------------|
Db|-------------------------|-------------------------|
Ab|-------------------------|-------------------------|
Eb|-------------------------|-------------------------|
                                                   And I was

eb|----------|----------|----------|----------|----------|----------|----------|----------|
Bb|----------|-----2----|-----3/2--|----------|----------|-----2----|-----3/2--|----------|
Gb|-----2----|----------|----------|----------|-----2----|----------|----------|----------|
Db|-4--------|----------|-0--------|-----3----|-4--------|----------|-0--------|-----3----|
Ab|----------|-4--------|----------|-4--------|----------|-4--------|----------|-4--------|
Eb|----------|----------|----------|----------|----------|----------|----------|----------|
    praying                                you’d be staying                            on this

eb|---------2---------------|---------2---------------|---------2---------------|
Bb|-----2-------------------|-----2-------------------|-----2-------------------|
Gb|-------------------------|-------------------------|-------------------------|
Db|-4-----------------------|-------------------------|-------------------------|
Ab|-------------------------|-4-----------------------|-------------------------|
Eb|-------------------------|-------------------------|-2-----------------------|
    lonely        lonely      lonely        lonely

eb|---------1---------------|---------2---------------|---------2---------------|
Bb|-----2-------------------|-----2-------------------|-----2-------------------|
Gb|-------------------------|-------------------------|-------------------------|
Db|-------------------------|-------------------------|-4-----------------------|
Ab|-4-----------------------|-0-----------------------|-------------------------|
Eb|-------------------------|-------------------------|-------------------------|
                    street of dreams

eb|---------2---------------|---------1---------------|---------2---------------|
Bb|-----2-------------------|-----2-------------------|-----2-------------------|
Gb|-------------------------|-------------------------|-------------------------|
Db|-0-----------------------|-------------------------|-4-----------------------|
Ab|-------------------------|-4-----------------------|-------------------------|
Eb|-------------------------|-------------------------|-------------------------|
                                                on this lonely        lonely

eb|---------2---------------|----------2--------------|----------1--------------|
Bb|-----2-------------------|-----2-------------------|-----2-------------------|
Gb|-------------------------|-------------------------|-------------------------|
Db|-------------------------|-------------------------|-------------------------|
Ab|-4-----------------------|-------------------------|-4-----------------------|
Eb|-------------------------|-2-----------------------|-------------------------|
    lonely        lonely                                                     street of

eb|---------2---------------|---------2---------------|---------2---------------|
Bb|-----2-------------------|-----2-------------------|-----0-------------------|
Gb|-------------------------|-------------------------|-------------------------|
Db|-------------------------|-0-----------------------|-------------------------|
Ab|-0-----------------------|-------------------------|-------------------------|
Eb|-------------------------|-------------------------|-4-----------------------|
    dreams

eb|---------------------2-2-|-------------------------|-------------------------|
Bb|-------------------------|-2-------------------2-2-|-3---------------------2-|
Gb|-------------------------|-------------------------|-------------------------|
Db|-------------------------|-------------------------|-0---0---0---0---0---0---|
Ab|-4-----------------------|-------------------------|-------------------------|
Eb|-------------------------|-2---2---2---2---2---2---|-------------------------|

eb|-------------------------|-----------------4-4-4-4-|-4-0-0-------------------|
Bb|-0-----------------------|-2-----------------------|---------------------2-2-|
Gb|---------------------2-4-|-------------------------|-------------------------|
Db|-------------------------|-------------------------|-------------------------|
Ab|-2---2---2---2---2---2---|-4---4---4---4---4---4---|-------------------------|
Eb|-------------------------|-------------------------|-2---2---2---2---2---2---|

eb|-------------------------|-------------------------|---------------------2-0-|
Bb|-2---------------------0-|-0---------------------0-|-2-----------------------|
Gb|---2-2---------------2---|---------------------2---|-------------------------|
Db|-0---0---0---0---0---0---|-------------------------|-------------------------|
Ab|-------------------------|-2---2---2---2---2---2---|-4---4---4---4---4---4---|
Eb|-------------------------|-------------------------|-------------------------|

eb|-------------------------|-------------------------|-------------------------|
Bb|-------------------------|-------------------------|-------------------------|
Gb|-------------------------|-------------------------|-------------------------|
Db|-------------------------|-0---0---0---0---0---0---|-------------------------|
Ab|-------------------------|-------------------------|-2---2---2---2---2---2---|
Eb|-2---2---2---2---2---2---|-------------------------|-------------------------|
   (badass solo from hell - not yet transcribed)

eb|-------------------------|-----2-----0-----2-------|-------------------------|
Bb|-------------------------|---------2-----------2---|-3---2-----0-----2-------|
Gb|-------------------------|-------------------------|---------2---------------|
Db|-------------------------|-------------------------|-0---0---0---0---0---4---|
Ab|-4---4---4---4---4---4---|-------------------------|-------------------------|
Eb|-------------------------|-2---2---2---2---2---2---|-------------------------|

eb|-------------------------|-------------------------|-4-4-4-2-----4-4-4-2-----|
Bb|-------------------------|-------------------------|-------------------------|
Gb|-------------------------|-------------------------|-------------------------|
Db|-------------------------|-------------------------|-------------------------|
Ab|-------------------------|-4---4---4---4---4---4---|-------------------------|
Eb|-4---4---4---4---4---4---|-------------------------|-2---2---2---2---2---2---|

eb|-0-0-0-------0-0-0-------|-------------------------|-------------------------|
Bb|-------3-----------3-----|-2-2-2-0-----3-3-3-2-----|-0-0-0-------------------|
Gb|-------------------------|-------------------------|-------2-----2-2-2-1-----|
Db|-0---0---0---0---0---0---|-------------------------|-------------------------|
Ab|-------------------------|-------------------------|-4---4---4---------------|
Eb|-------------------------|-4---4---4---4---4---4---|-------------4---4---4---|

eb|-4-4-4-2-----4-4-4-2-----|-0-0-0-------0-0-0-------|-------------------------|
Bb|-------------------------|-------3-----------3-----|-2-2-2-0-----3-3-3-2-----|
Gb|-------------------------|-------------------------|-------------------------|
Db|-------------------------|-0---0---0---0---0---0---|-------------------------|
Ab|-------------------------|-------------------------|-------------------------|
Eb|-2---2---2---2---2---2---|-------------------------|-4---4---4---4---4---4---|

eb|-------------------------|----2--------------------|
Bb|-0-0-0-------------------|---2---------------------|
Gb|-------2-----2-2-2-1-----|-------------------------|
Db|-------------------------|--4----------------------|
Ab|-4---4---4---------------|-------------------------|
Eb|-------------4---4---4---|-2-----------------------|


#----------------------------------PLEASE NOTE--------------------------------#
#This file is the author's own work and represents their interpretation of the#
#song. You may only use this file for private study, scholarship, or research.#
#-----------------------------------------------------------------------------#
#-- File created with Instab - http://www.pconline.com/~smcarey/instab.html --#
#-----------------------------------------------------------------------------#

Author/Artist: Lindsey Buckingham
Title: Street of Dreams
Album: Out of the Cradle
Transcribed by: Giz
Email: giz_hornbeast@hotmail.com

Tuning: Eb Ab Db Gb Bb eb

---------x---------------x-----------------------------------------------------|
---------x---------------x-----------------------------9-9-9-9--95--5----------|
--6-6-6--x-----6-6-6--7--x----6--4----4-4--4/6---------------------------------|
--x------------x--------------x-------x----------------------------------------|
--x---------------------------x------------------------------------------------|
-------------------------------------------------------------------------------|


-------------------------------------------------7--5--7--5/7--5--7----7--5----|
-------------------------------------------------------------------------------|
-6-6-6-6--62--2----2-2--2/4---4-4--4/6-----------------------------------------|
--------------------x----------x-----------------------------------------------|
--------------------x----------------------------------------------------------|
-------------------------------------------------------------------------------|


-7--9--7--5-----------------------4-------------------------------------------|
-------------7-----5--7--7p5---7----5--7p5-5----------------------------------|
-----------------------------6----------------5p4---4-4-4/6-6---6-6-6--6-6-6--|
--------------------------------------------------6---------------------------|
------------------------------------------------------------------------------|
------------------------------------------------------------------------------|


------------------------------------------------------------------------------|
--7----7----7-----5----5----5-------------------------------------------------|
-----6---6----6-7----7---7----7-----4---4---4----4---4-----6---6---6---6------|
------------------------------------------------------------------------------|
-----------------------------------2--2---2----2---2-----4---4---4---4--------|
------------------------------------------------------------------------------|


-|---------------------------------------------------------------|------------|
-|-9p7---7---9---7----5p3---3----5---3---------------------------|------------|
-|-----6---6---6----------2----2---2-------6-4--7-6---4-2---2-1--|------------|
-|---------------------------------------------------------------|--4---------|
-|---------------------------------------------------------------|------------|
-|---------------------------------------------------------------|------------|
                                                               x2
Tap to rate this tab
 
# A B C D E F G H I J K L M N O P Q R S T U V W X Y Z