Song name
# A B C D E F G H I J K L M N O P Q R S T U V W X Y Z

Lindsey Buckingham - Time Bomb Town tab

All done by ear, so there are probably mistakes, but I couldn't find this song anywhere 
least not tabbed out) and I really wanted to learn it. Also, this is my first tabbing 
so go easy on me :)

Intro/Verse (Repeats)

e|-11------9--14--11------9--11--7-----6->7--4-----7--9-||
B|-12-----11--12--12-----11--12--9-----7--7--4-----9-11-||
G|-13------8--13--13------8--13--8-----8--8--4-----8--8-||
D|------------------------------------------------------||
A|------------------------------------------------------||
E|------------------------------------------------------||

Chorus

e|-12--11--9------9->10--10->11--11->12------11------9------||
B|-12--12-11------9->10--10->11--11->12------12-----11------||
G|-11--11-11-----10->11--11->12--12->13------13------8------||
D|----------------------------------------------------------||
A|----------------------------------------------------------||
E|----------------------------------------------------------||

These two parts just about make up the whole song.

Let me know what you think!
Tap to rate this tab
 
# A B C D E F G H I J K L M N O P Q R S T U V W X Y Z