Song name
# A B C D E F G H I J K L M N O P Q R S T U V W X Y Z

Lindsey Buckingham - Holiday Road tab

----------------------------------------------------------------------------
			 Holiday Road - Lindsey Buckingham
----------------------------------------------------------------------------

Tuning: Standard

Intro:
e|-------------------------------------------------------------------------|
B|-------------------------------------------------------------------------|
G|-------------------------------------------------------------------------|
D|--2-3-3-3--3----2-3-3-3--3----2-3-3-3--3----2-3-3-3--3-------------------|
A|-------------------------------------------------------------------------|
E|-------------------------------------------------------------------------|

Verse 1:
e|------8----8------8----8------8----8------8----8------8----8------8--------|
B|---------------------------------------------------------------------------|
G|-9/10---10---9/10---10---9/10---10---9/10---10---9/10---10---9/10----------|
D|---------------------------------------------------------------------------|
A|---------------------------------------------------------------------------|
E|---------------------------------------------------------------------------|

e|------8----8------8----8------8----8------8----8------8----8------8------|
B|-------------------------------------------------------------------------|
G|-9/10---10---9/10---10---9/10---10---9/10---10---9/10---10---9/10--------|
D|-------------------------------------------------------------------------|
A|-------------------------------------------------------------------------|
E|-------------------------------------------------------------------------|
	I found out long ago... Whoa-oh-oh... It's a long way down holiday road... Whoa-oh-oh...

Chorus 1:
        Bb      C      Am
Holiday Roaaaaaaoooaaaaooood
        Dm      Bb     C
Holiday Roaaaaaaoooaaaaooood

Verse 2:
e|------8----8------8----8------8----8------8----8------8----8------8------|
B|-------------------------------------------------------------------------|
G|-9/10---10---9/10---10---9/10---10---9/10---10---9/10---10---9/10--------|
D|-------------------------------------------------------------------------|
A|-------------------------------------------------------------------------|
E|-------------------------------------------------------------------------|

e|------8----8------8----8------8----8------8----8------8----8------8------|
B|-------------------------------------------------------------------------|
G|-9/10---10---9/10---10---9/10---10---9/10---10---9/10---10---9/10--------|
D|-------------------------------------------------------------------------|
A|-------------------------------------------------------------------------|
E|-------------------------------------------------------------------------|
	Jack be nimble, Jack be quick... Whoa-oh-oh... Take a ride on the west 
coast kick... Whoa-oh-oh...

Chorus 2:
        Bb      C      Am
Holiday Roaaaaaaoooaaaaooood
        Dm      Bb     C
Holiday Roaaaaaaoooaaaaooood

e|------8----8------8----8----|
B|----------------------------|
G|-9/10---10---9/10---10------|
D|----------------------------|
A|----------------------------|
E|----------------------------|

        Bb      C      Am
Holiday Roaaaaaaoooaaaaooood
        Dm      Bb     C
Holiday Roaaaaaaoooaaaaooood

Solo:
e|-------------------------------------------------------------------------|
B|-6---5----------------------------6---5----------------------------------|
G|---5---5-7-5--7\5-------------------5---5-7-5--7\5-----------------------|
D|------------------7--------------------------------7---------------------|
A|--------------------8-8------------------------------8-8-----------------|
E|-------------------------------------------------------------------------|

e|-------------------------------------------------------------------------|
B|-6---5----------------------------6---5----------------------------------|
G|---5---5-7-5-7--7\5------------------5---5-7-5--7\5----------------------|
D|-------------------7--------------------------------7--------------------|
A|---------------------8-8------------------------------8-8----------------|
E|-------------------------------------------------------------------------|

e|-------------------------------------------------------------------------|
B|-----------------------------------10----10-11-10-11-13b-----------------|
G|-10-9----------9-10-9-10--12-10-12----12---------------------------------|
D|------12-10-12-----------------------------------------------------------|
A|-------------------------------------------------------------------------|
E|-------------------------------------------------------------------------|

Verse 3:
e|-------------------------------------------------------------------------|
B|-------------------------------------------------------------------------|
G|-10b-10b-10b-10b-10b-10b-10b-10b-10b-10b-10b-10b-10b-10b-10b-10b-10b-10b-|
D|-------------------------------------------------------------------------|
A|-------------------------------------------------------------------------|
E|-------------------------------------------------------------------------|
	I found out long ago... Whoa-oh-oh... It's a long way down holiday road... Whoa-oh-oh...

Chorus 3:
        Bb      C      Am
Holiday Roaaaaaaoooaaaaooood
        Dm      Bb     C
Holiday Roaaaaaaoooaaaaooood

e|------8----8------8----8----|
B|----------------------------|
G|-9/10---10---9/10---10------|
D|----------------------------|
A|----------------------------|
E|----------------------------|

        Bb      C      Am
Holiday Roaaaaaaoooaaaaooood
        Dm      Bb     C
Holiday Roaaaaaaoooaaaaooood

e|------8----8------8----8----|
B|----------------------------|
G|-9/10---10---9/10---10------|
D|----------------------------|
A|----------------------------|
E|----------------------------|

Outro:
e|-------------------------------------------------------------------------|
B|-------------------------------------------------------------------------|
G|-10b-10b-10b-10b-10\9/10-10b-10b-10b-10b-10\9/10-10b-10b-10b-10b-10\9/10-|
D|-------------------------------------------------------------------------|
A|-------------------------------------------------------------------------|
E|-------------------------------------------------------------------------|

e|-------------------------------------------------------------------------|
B|-------------------------------------------------------------------------|
G|-10b-10b-10b-10b-10\9/10-10b-10b-10b-10b-10\9/10-10b-10b-10b-10b-10\9/10-|
D|-------------------------------------------------------------------------|
A|-------------------------------------------------------------------------|
E|-------------------------------------------------------------------------|

e|-------------------------------------------------------------------------|
B|-------------------------------------------------------------------------|
G|-10b-10b-10b-10b-10\9/10-10b-10b-10b-10b-10\9/10\0-----------------------|
D|-------------------------------------------------------------------------|
A|-------------------------------------------------------------------------|
E|-------------------------------------------------------------------------|

************************************

| /   slide up
| \   slide down
| h   hammer-on
| p   pull-off
| ~   vibrato
| +   harmonic
| x   Mute note
| b   Bend
| pb  Pre-bend
| br  Bend release
| pbr Pre-bend release
| brb Bend release bend

************************************
Tap to rate this tab
 
# A B C D E F G H I J K L M N O P Q R S T U V W X Y Z