Song name
# A B C D E F G H I J K L M N O P Q R S T U V W X Y Z

Lindsey Stirling - Radioactive tab

I hope you like it, send me any error and i will fix them ;)

INTRO (0:10-0:32) 

|--------------------------------------------------------------------------9--8----------------------|
|------------------------------------------11--s6---s11--s9-----9--11--13-------9--------------------|
|--6---5--3-----3--5--6---------/5---3-----------------------10-------------------8--5--3------------|
|-------------3----------3---1-----------------------------------------------------------------------|
|----------------------------------------------------------------------------------------------------|
|----------------------------------------------------------------------------------------------------|

|-----------------------s8--------------------------------------------------|
|-----9--11-----9h11p9------9---------------------------14141414------------|
|-10--------10-----------------8------13131313-------------------15---------|
|----------------------------------------------15151515---------------------|
|---------------------------------------------------------------------------|
|---------------------------------------------------------------------------|

(0:43-0:47)

|---------------------------------------------------|
|--------9--6------11-/13---13b------11-------------|
|--8--5---------8-----------------------------------|
|---------------------------------------------------|
|---------------------------------------------------|
|---------------------------------------------------|

CHORUS (1:01-1:25)

|--18---16----------16---15-16-15-16------| 
|-------------------------------------18--| 
|-----------------------------------------| 
|-----------------------------------------|
|-----------------------------------------|
|-----------------------------------------|

|------------------------------------------------------------------|
|-14-14-14---14-16-18-18-18---16-14--16-16-16---16-14--------------|
|-----------------------------------------------------15-15-15-----|
|------------------------------------------------------------------|
|------------------------------------------------------------------|
|------------------------------------------------------------------|

|----------------18------------------21-------------------------------------------|
|-11-13-14-14-14------14-16-18-18-18-------16--14-16-16-16--16---14---------------|
|--------------------------------------------------------------------15-15-15-----|
|---------------------------------------------------------------------------------|
|---------------------------------------------------------------------------------|
|---------------------------------------------------------------------------------|

|----------------18------------------21---------------|
|-11-13-14-14-14------14-16-18-18-18-------16--14-----|
|-----------------------------------------------------|
|-----------------------------------------------------|
|-----------------------------------------------------|
|-----------------------------------------------------|

SOLO (1:30-1:51)

|-13---------------------------------------------------| 
|-----16p14p13-----------------------------------------| 
|--------------15-13-15--------------------------------| 
|------------------------15--13-15--13-----------------| 
|---------------------------------------16--15-11/13---|
|------------------------------------------------------|

|---------------------------------------------------------13----------|
|------------------------------13-14----13-14-16-13-14-16-------------|
|---------------------15-13-15-------15-------------------------------|
|------------------13-------------------------------------------------|
|-13p11h13--15--16----------------------------------------------------|
|---------------------------------------------------------------------|


|-------------------13/16----------------------------------------------------------------|
|----------18--16--------14/16---/13-13----13-14--13h14p13-------------------------------|
|-15----18------------------------------15-----------------15-13-------------------------|
|----------------------------------------------------------------15-13-13-15-----13------|
|-----------------------------------------------------------------------------16----13---|
|----------------------------------------------------------------------------------------|

|------------------------------------------16-15-----15h16p15----------------------------|
|---------------------13-14--16-14-13---14--------------------16-14-13-14----16-13-------|
|---------------13-15-----------------------------------------------------15--------10---|
|-/15-15-15-13---------------------------------------------------------------------------|
|----------------------------------------------------------------------------------------|
|----------------------------------------------------------------------------------------|

VERSE (1:52-2:04)

|---------------------------------------------------------------------------------|
|---------------------------------------------------------------------------------|
|-18---17---------18--15-17----------------15------------15-----------------------|
|----------15/13-------------15/13--18--15------18--15-18----18/15-13-15----------|
|------------------------------------------------------------------------16-13----|
|---------------------------------------------------------------------------------|

|-----------------18-20--16-18--13-16----------------------------------|
|--------------------------------------14h16p14h16p14------------------|
|-18---17----20-----------------------------------------15-------------|
|----------------------------------------------------------------------|
|----------------------------------------------------------------------|
|----------------------------------------------------------------------|


CHORUS (1:01-1:25)

|--18---16----------16---15-16-15-16------| 
|-------------------------------------18--| 
|-----------------------------------------| 
|-----------------------------------------|
|-----------------------------------------|
|-----------------------------------------|

|------------------------------------------------------------------|
|-14-14-14---14-16-18-18-18---16-14--16-16-16---16-14--------------|
|-----------------------------------------------------15-15-15-----|
|------------------------------------------------------------------|
|------------------------------------------------------------------|
|------------------------------------------------------------------|

|----------------18------------------21-------------------------------------------|
|-11-13-14-14-14------14-16-18-18-18-------16--14-16-16-16--16---14---------------|
|--------------------------------------------------------------------15-15-15-----|
|---------------------------------------------------------------------------------|
|---------------------------------------------------------------------------------|
|---------------------------------------------------------------------------------|

|----------------18------------------21---------------|
|-11-13-14-14-14------14-16-18-18-18-------16--14-----|
|-----------------------------------------------------|
|-----------------------------------------------------|
|-----------------------------------------------------|
|-----------------------------------------------------|

(2:34-2:47)

|-16v----------16v------18-16-15----------------------------------------16--15------------|
|--------------------------------16---------------------14--13---14--16----------16-------|
|-----------------------------------15--/13-12-13------------------------------------15---|
|---------------------------------------------------15------------------------------------|
|-----------------------------------------------------------------------------------------|
|-----------------------------------------------------------------------------------------|

2ND SOLO (2:48-3:01)

|--------------------------------------------------------------------|
|---------------------------9-8-9-8----------------------------------|
|-10-8-10-8-10-----10-8-10----------8----------------------6-5-------|
|----------------8--------------------8---8h10p8/6h8--8-6------------|
|--------------------------------------------------------------------|
|--------------------------------------------------------------------|

|--------------------------------------------------------------|
|-----------------------------------------8--9--11-------------|
|-------------------------------8--10--------------------------|
|-3--3---3-5-6--6p3h6/8/10--10---------8-----------------------|
|------6-------------------------------------------------------|
|--------------------------------------------------------------|

PRE-CHORUS (3:02-3:15)

|-18-18-18-16-16-----16-16-16-15-15-------| 
|----------------18------------------16---| 
|-----------------------------------------| 
|-----------------------------------------| 
|-----------------------------------------| 
|-----------------------------------------| 

|13----13----13-----13----13----13----13----13--------------------13----|
|---16----16-----------16----------16----16-----------------13-14-------|
|---------------15-----------15----------------15--15-15-15-------------|
|-----------------------------------------------------------------------|
|-----------------------------------------------------------------------|
|-----------------------------------------------------------------------|

CHORUS (3:16-3:35)

|-18---21---20--21-20-18-----------18------18-----15h16p15--------------------------------|
|------------------------------------------------------------16---------------------------|
|---------------------------------------------------------------15--17h118p17-/15-15------|
|-----------------------------------------------------------------------------------------|
|-----------------------------------------------------------------------------------------|
|-----------------------------------------------------------------------------------------|

|---------------------------------------------------------------------------|
|----------------------------13-13-13-13-11-11--11-11-11-11-13-13-----------|
|-10-8----8----10-8----8----------------------------------------------------| (x2)
|------11---8-------11---8--------------------------------------------------|
|---------------------------------------------------------------------------|
|---------------------------------------------------------------------------|
Tap to rate this tab
# A B C D E F G H I J K L M N O P Q R S T U V W X Y Z