Song name
# A B C D E F G H I J K L M N O P Q R S T U V W X Y Z

Line 5 - Wake Up tab

Lead Guitar
E|---------------------------------------------------------------------|
B|---------------------------------------------------------------------|
G|---------------------------------------------------------------------|
D|2-----------2-----------2-----------2--------------------------------|
A|2(let ring)-2(let ring)-2(let ring)-2--------------------------------|
E|0-----------0-----------0-----------0----p-i-c-k--s-l-i-d-e----------|


E|-----------------------------------------------|
B|------------------------------------22222233333|
G|-----------------------------------------------|X2
D|-----------------------------------------------|
A|-----------------------------------------------|
E|0-0--0-0--0-0-0-0--0-0--0-0--0-0-0-0-----------|
  * *  * *  * * * *  * *  * *  * * * *
Backup Guitar
E|-------------------------------------------------------------------|
B|-------------------------------------------------------------------|
G|-------------------------------------------------------------------|
D|2-----------2-----------2-----------2------------------------------|
A|2(let ring)-2(let ring)-2(let ring)-2------------------------------|
E|0-----------0-----------0-----------0------------------------------|


E|--------------------------------------------------|
B|--------------------------------------------------|
G|--------------------------------------------------|
D|--------------------------------------------------|
A|--------------------------------------------------|
E|0-0--0-0--0-0-0-0--0-0--0-0--0-0-0-0---13/--------|
  * *  * *  * * * *  * *  * *  * * * *

Bass
G|----------------------------------------------------|
D|----------------------------------------------------|
A|----------------------------------------------------|
E|0(let ring)-0(let ring)-0(let ring)-0(let ring)-13/-|

G---------------------------------------------------|
D---------------------------------------------------|
A---------------------------------------------------|
E|0-0--0-0--0-0-0-0--0-0--0-0--0-0-0-0---13/--------|

Tap to rate this tab
# A B C D E F G H I J K L M N O P Q R S T U V W X Y Z